PrimaNota.ru - самый крупный в мире бесплатный архив песенных текстов, аккордов, табулатур и нот


Roy Hargrove - Strasbourg St Denis - таба, бас-таба, видео

Регистрация Запомнить меня
Войти через:  Facebook Google Twitter Vk Yandex Mail.ru

Roy Hargrove - Strasbourg St Denis - таба, бас-таба, видео

Печатать
Просмотров: 228
-------------------------------------------------------------------------------
                   Strasbourg St Denis - Roy Hargrove
-------------------------------------------------------------------------------
Tabbed by: Enis
E-mail:

Tuning: standard

This is the main theme of the song played by the trumpet and the saxophon - it must be played twice 

e|----------------------------|----------------------------------------------|
B|----8-----------------------|--8-------------------------------------------|
G|------9-7-9-7---------------|----9-7-9-7-----------------7-----------------|
D|--------------9-7-5-0-7-5---|------------9-7-5-0-7-5---9-------------------|
A|----------------------------|----------------------------------------------|
E|----------------------------|----------------------------------------------|

e|----------------------------|----------------------------------------------|
B|----8-----------------------|----------------------------------------------|
G|------9-7-9-7---------------|-------4--------------------------------------|
D|--------------9-7-5-0-7-5---|---5-5---7-5-4-2-0-0-4-5-6-4-3----------------|
A|----------------------------|----------------------------------------------|
E|----------------------------|----------------------------------------------|
Добавлено: 10.08.2015
Другие материалы по этой песне:

Страница создана 18.03.2012
http://primanota.ru/roy-hargrove/strasbourg-st-denis-chords.htm
Привет, Гость.
Предлагаем пройти революционный курс по гитаре.
Подарок от PrimaNota.Ru, забирай!