PrimaNota.ru - самый крупный в мире бесплатный архив песенных текстов, аккордов, табулатур и нот


Roxy Music - Pyjamarama - текст песни, таба, видео

Регистрация Запомнить меня
Войти через:  Facebook Google Twitter Vk Yandex Mail.ru

Roxy Music - Pyjamarama - текст песни, таба, видео

Печатать
Просмотров: 121
Intro

e--------------------------------------|
B--------------------------------------|
G--------------------------------------|
D-8-8-8--8-8-8--8-8-8--8-8-8-----------|
A-6-6-6--5-5-5--4-4-4--x-x-x-----------|
E----------------------8-8-8-----------|

for the last chord you can play

D-8
A-3

but you might find it a bit of a stretch

Verse

with chorus and some variations, arpeggiate
e--------------------------|
B--------------------------|
G-8-8-6-5------------------|
D-8-8-6-5------------------|
A-6-5-4-3------------------|
E--------------------------|


it should be like (fairly slowly, I've just typed it close together)

e-----------------------------------|
B-----------------------------------|
G---8---8---8---8---6---6---5---5---|
D--8-8-8-8-8-8-8-8-6-6-6-6-5-5-5-5--|
A-6---6---5---5---4---4---3---3-----|
E-----------------------------------|

Oboe (?) solo

basically bend that 13 a lot and sorry, the timing is awful, but if you know the song 
hopefully be able to get it

e-----------------------------------------------------------|
B-20~--18-16----------13~-(15)-13~-13~-13~-13~-13~-13~-13~--| etc
G------------12-13-15---------------------------------------|
D-----------------------------------------------------------|
A-----------------------------------------------------------|
E-----------------------------------------------------------|

e-------------------------------------------------------------|
B-------------------------------------------------------------|
G-12-13-15-15-12-15-12-15-15-12-15-12-------15-x-15-x-15-x-15-|
D-------------------------------------10-11-------------------|
A-------------------------------------------------------------|
E-------------------------------------------------------------|

e--------------------------------|
B--------------------------------|
G-8------------------------------|
D---10--8h10p8-------------------|
A--------------10-10--10-8-10-11-|
E--------------------------------|

e---------------------------------------|
B------------------------------------20-|
G---------------------------------------|
D-8-10-13-10-13-15-17-17t18-20-17t18----|
A---------------------------------------|
E---------------------------------------|

Guitar solo
e--------------------------------------------------------------|
B--------------------------------------------------------------|
G------10-12-10-8---8-10-12-10-8-10-8-10-----------------------|
D-----8-----------8---------------------8----------------------|
A-6------------------------------------------------------------|
E--------------------------------------------------------------|

e--------------------------------------------------------------|
B--------------------------------------------------------------|
G-13~ 15~(17)-15~-15~(15)p-13-13-------------------------------|
D--------------------------------------------13----------------|
A--------------------------------15--------13------------------|
E--------------------------------------------------------------| x2 (slight variation on 
first part second time)

e--------------------------------------------------------------|
B--8----9/6--8/4-11~-------------------------------------------|
G--------------------------------------------------------------|
D--------------------------------------------------------------|
A--------------------------------------------------------------|
E--------------------------------------------------------------| x3

the slides are quick, so if you want you can ignore the first note in them and 
just play the 2nd one

you might like it better up an octave which is

e--------------------18-(or)-----------------------------------|
B-20---21/18---20/16--------22---------------------------------|
G--------------------------------------------------------------|
D--------------------------------------------------------------|
A--------------------------------------------------------------|
E--------------------------------------------------------------|

The timings not clear, I'm sorry, so listen to the song to get an idea of how it goes.
Also some of the layout is a bit funny, but that's so it was formatted properly.

There are overdubs of guitar in both the solos, in the oboe solo it's mainly bends and 
following the oboe
And in the guitar solo it's quite simlar to what I've tabbed.

The structure is

Intro
Verse
Oboe solo
Verse
Guitar Solo

tabbed by Gilles Casey
Добавлено: 26.02.2012
Другие материалы по этой песне:
  • Аккорды и текст

Страница создана 26.02.2012
http://primanota.ru/roxy-music/pyjamarama-chords.htm
Привет, Гость.
Предлагаем пройти революционный курс по гитаре.
Подарок от PrimaNota.Ru, забирай!