PrimaNota.ru - самый крупный в мире бесплатный архив песенных текстов, аккордов, табулатур и нот


Roxy Music - Lets stick together - бас-таба, видео

Регистрация Запомнить меня
Войти через:  Facebook Google Twitter Vk Yandex Mail.ru

Roxy Music - Lets stick together - бас-таба, видео

Печатать
Просмотров: 106



Date: Sun, 23 Oct 2005 20:25:28 +0200 (CEST)
From: [iso-8859-1] Jan Bjяfffffffffff6rklund 
Subject: r/roxy_music/lets_stick_together.btab

Let's Stick Together.btab
Roxy Music
TablEdited by Poppamies
Tuning : E A D G 	Time Signature: 4/4

 tempo 120       |       |        |       |       |       |        
|--------------------------------|--------------------------------|
|--------------------------------|--------------------------------|
|--------------------------------|--------------------------------|
|5---5---5---5---5---5---5---5---|5---5---5---5---5---5---5---5---|

 |       |       |       |        |       |       |       |        
|--------------------------------|--------------------------------|
|--------------------------------|--------------------------------|
|--------------------------------|----------------3---------------|
|5---5---5---5---5---5---5---5---|5---5---5---5-------5---2/3-5---|

 |       |       |       |        |       |       |       |        
|----------------5---5-----------|----------------5---5-----------|
|--------3---4-----------3/4-4---|--------3---4-----------3/4-4---|
|5---5---------------------------|5---5---------------------------|
|--------------------------------|--------------------------------|

 |       |       |       |        |       |       |       |        
|--------------------------------|--------------------------------|
|----------------5---5-----------|----------------5---5-----------|
|--------3---4-----------3/4-4---|--------3---4-----------3/4-4-4-|
|5---5---------------------------|5---5---------------------------|

 |       |       |       |        |       |       |       |        
|--------------------------------|--------------------------------|
|2---2---2---2---2---2---2---3---|------------------------3/4-5---|
|--------------------------------|5---5---5---5---5---5-----------|
|--------------------------------|--------------------------------|

 |       |       |       |        |       |       |       |        
|--------------------------------|--------------------------------|
|----------------5---5-----------|5-------------------------------|
|--------3---4-----------4---4---|--------------------------------|
|5---5---------------------------|----0---0---0---0/2-2---3---4---|

 |       |       |       |        |       |       |       |        
|--------------------------------|--------------------------------|
|--------------------------------|--------------------------------|
|----0---0---0---0---0---0---0---|0---0---0---0---0---0---0---0---|
|--------------------------------|--------------------------------|

 |       |       |       |        |       |       |       |        
|--------------------------------|--------------------------------|
|--------------------------------|--------------------------------|
|0---0---0---0---0---0---0---0---|0---0---0/2-0---2---0---4---0---|
|--------------------------------|--------------------------------|

 |       |       |       |        |       |       |       |        
|----------------5---5-----------|----------------5---5-----------|
|--------3/4-4-----------3/4-5---|--------3/4-4-----------3/4-5---|
|5---5---------------------------|5---5---------------------------|
|--------------------------------|--------------------------------|

 |       |       |       |        |       |       |       |        
|--------------------------------|--------------------------------|
|----------------5---5-----------|----------------5---5-----------|
|--------3---4-----------3---4---|--------3---4-----------3---4---|
|5---5---------------------------|5---5---------------------------|

 |       |       |       |        |       |       |       |        
|--------------------------------|--------------------------------|
|--------------------------------|------------------------------4-|
|7---7---7---7---7---7---7---6---|5---5---5---5---5---5---3---5---|
|--------------------------------|--------------------------------|

 |       |       |       |        |       |       |       |        
|--------------------------------|--------------------------------|
|----------------5---5-----------|--------------------------------|
|--------3---4-----------3---4---|--------------------------------|
|5---5---------------------------|----0---0---0---0---2---3---4---|

 |       |       |       |        
|--------------------------------|
|----------------5---5-----------|
|--------3---4-----------3---4/5-|
|5---5-------and so on...--------|

Transcribe  6.0 transcription http://www.seventhstring.demon.co.uk/
Created with TablEdit http://www.tabledit.com/
http://www.geocities.com/jani_bjorklund/janis.html


Добавлено: 15.09.2013
Другие материалы по этой песне:
  • Аккорды и текст

Страница создана 15.09.2013
http://primanota.ru/roxy-music/lets-stick-together-chords.htm
Привет, Гость.
Предлагаем пройти революционный курс по гитаре.
Подарок от PrimaNota.Ru, забирай!