PrimaNota.ru - самый крупный в мире бесплатный архив песенных текстов, аккордов, табулатур и нот


Rowland S Howard - Shut Me Down - таба, видео

Регистрация Запомнить меня
Войти через:  Facebook Google Twitter Vk Yandex Mail.ru

Rowland S Howard - Shut Me Down - таба, видео

Печатать
Просмотров: 76
Shut Me Down
By Rowland S Howard

Transcribed from the live version at All Tomorrow's
Parties: 
https://youtu.be/5BYv2P2SPTA
Watch to get strumming pattern.

Verse
  C/G           Em
|-------0-------0---------------------(0)-(0)----------|
|-1-(1)-1-------0---------------------(0)-(0)----------|
|-0-(0)-0-------0---------------------(0)-(0)----------|
|-2-(2)-2-------2---------------------(2)-(2)----------|
|-3-(3)-3---3---2---------------------(2)-(2)----------|
|-3-(3)-3-3---3-0-(0)-(0)-(0)-(0)-(0)-(0)-(0)----------|
  d  u  d       d                      d   u


  C/G           Em
|-------0-------0---------------------(0)-(0)----------|
|-1-(1)-1-------0---------------------(0)-(0)----------|
|-0-(0)-0-------0---------------------(0)-(0)----------|
|-2-(2)-2---2---2---------------------(2)-(2)----------|
|-3-(3)-3-----3-2---------------------(2)-(2)----------|
|-3-(3)-3-3-----0-(0)-(0)-(0)-(0)-(0)-(0)-(0)----------|
  d  u  d       d                      d   u

Bridge
  C/G           Em
|-------0-------0---------------------(0)-(0)----------|
|-1-(1)-1-------0---------------------(0)-(0)----------|
|-0-(0)-0-------0---------------------(0)-(0)----------|
|-2-(2)-2-------2---------------------(2)-(2)----------|
|-3-(3)-3---3---2---------------------(2)-(2)----------|
|-3-(3)-3-3---3-0-(0)-(0)-(0)-(0)-(0)-(0)-(0)----------|
  d  u  d       d                      d   u

  C/G           
|-------0----------------------------------------------|
|-1-(1)-1----------------------------------------------|
|-0-(0)-0----------------------------------------------|
|-2-(2)-2---2------------------------------------------|
|-3-(3)-3-----3----------------------------------------|
|-3-(3)-3-3--------------------------------------------|
  d  u  d     

Chorus: Part 1
  F
|-1-1-1-1-1-1-1-1-1-1----------------------------------|
|-1-1-1-1-1-1-1-1-1-1----------------------------------|
|-2-2-2-2-2-2-2-2-2-2----------------------------------|
|-3-3-3-3-3-3-3-3-3-3----------------------------------|
|-3-3-3-3-3-3-3-3-3-3----------------------------------|
|-1-1-1-1-1-1-1-1-1-1----------------------------------|
  d d d u d u d d d u

Chorus: Part 2
  G
|-3-3-3-3-3-3-3-3-3-3----------------------------------|
|-3-3-3-3-3-3-3-3-3-3----------------------------------|
|-0-0-0-0-0-0-0-0-0-0----------------------------------|
|-0-0-0-0-0-0-0-0-0-0----------------------------------|
|-2-2-2-2-2-2-2-2-2-2----------------------------------|
|-3-3-3-3-3-3-3-3-3-3----------------------------------|
  d d d u d u d d d u

  G               F
|-3-3-3-3---------1-1-----1-1-1-------1-1-1------------|
|-3-3-3-3---------1---1---1-1---1-----1-1-1------------|
|-0-0-0-0---------2-----2-2-2-----2---2-2-2------------|
|-0-0-0-0-0-------3-------3-3-------3-3-3-3------------|
|-2-2-2-2---3-2-0-3-------3-3---------3-3-3------------|
|-3-3-3-3---------1-------1-1---------1-1-1------------|
  d d d u         d       d d         d d u

  G           F       Fma7(#11)/E
|-3---------3-1-1-1-1-0-0------------------------------|
|-3---------3-1-1-1-1-0-0------------------------------|
|-0---------0-2-2-2-2-2-2------------------------------|
|-0-0-------0-3-3-3-3-3-3------------------------------|
|-2---3-2-3-2-3-3-3-3-3-3------------------------------|
|-3---------3-1-1-1-1-0-0------------------------------|
 d          d d u d u d u

Chorus: Part 3
  C/G
|-x-0-x-x-x-x-x-0-x-x----------------------------------|
|-1-1-1-1-1-1-1-1-1-1----------------------------------|
|-0-0-0-0-0-0-0-0-0-0----------------------------------|
|-2-2-2-2-2-2-2-2-2-2----------------------------------|
|-3-3-3-3-3-3-3-3-3-3----------------------------------|
|-3-3-3-3-3-3-3-3-3-3----------------------------------|
  d d d u d u d d d u 

Song Structure:
Verse          (X4)
Bridge         (X1)
Chorus: Part 1 (X2)
Chorus: Part 2 (X1)
Chorus: Part 3 (X2)
Chorus: Part 1 (X2)
Chorus: Part 3 (X2)
Chorus: Part 1 (X2)
Verse          (X4)
Bridge         (X1)
Chorus: Part 1 (X2)
Chorus: Part 2 (X1)
Chorus: Part 3 (X2)
Chorus: Part 1 (X2)
Chorus: Part 3 (X2)
Chorus: Part 1 (X2)
Verse          (X4)
(On the final of the four verses, play the second half slowly)

d: down strum
u: up strum
Добавлено: 27.05.2016
Другие материалы по этой песне:
  • Аккорды и текст

Страница создана 27.05.2016
http://primanota.ru/rowland-s-howard/shut-me-down-chords.htm
Привет, Гость.
Предлагаем пройти революционный курс по гитаре.
Подарок от PrimaNota.Ru, забирай!