PrimaNota.ru - самый крупный в мире бесплатный архив песенных текстов, аккордов, табулатур и нот


Rowland S Howard - Breakdown And Then - таба, видео

Регистрация Запомнить меня
Войти через:  Facebook Google Twitter Vk Yandex Mail.ru

Rowland S Howard - Breakdown And Then - таба, видео

Печатать
Просмотров: 104
Уроки эстрадного вокала в Санкт-Петербурге
From the video's I've seen Rowland played with a capo on 2nd, alternatively can be
played without using an open high E string.

Based from tab on http://rowland-s-howard.com

INTRO

(riff 1)

----------------|
----------------|
----------------|
----------------|
----------------|
-2--2-2--2------|

-2----2---2-----|
-14---12--11----|
----------------|
----------------|
----------------|
----------------|

----------------|
----------------|
----------------|
----------------|
----------------|
-2--2-2--2------|

-2---2--2-------|
-2---5--7-------|
----------------|
----------------|
----------------|
----------------|

(riff 2)

----------------|
----------------|
----------------|
----------------|
-2--2-2--2------|
----------------|

-2---2--2-------|
-5---7--10------|
----------------|
----------------|
----------------|
----------------|

----------------|
----------------|
----------------|
----------------|
-2--2-2--2------|
----------------|

-2---2--2--2----|
-5---7--10-12---|
----------------|
----------------|
----------------|
----------------|

(riff 1)
Crown prince of the crying jag,
(riff 1)
Stuffed a towel in his mouth to gag.
(riff 2)
Oh my darling I never knew
(riff 2)
How hard it was to get rid of you.
(riff 1)
I smashed on our virgin date,
(riff 1)
Tell me, how did I reach that state?
(riff 2)
The day ends again, and then
(riff 2)
My darling here comes your breakdown and then...

F#

----------------|
----------------|
3-4-3-----------|
------4-2-------|
----------4-----|
----------------|

F# A Bm

----------------|
----------------|
----2-----------|
2-4---4-2-------|
----------2-----|
----------------|

Bm A F#


(riff 1)
Struck down by my own device
(riff 1)
Sweet Jesus-ice-cold-Christ.
(riff 2)
You drowned in the dining room
(riff 2)
Resurrection sure came too soon.
(riff 1)
God it's cold in this room
(riff 1)
Hopped up on fever's croon
(riff 2)
Just two more love dumb fools
(riff 2)
Here comes your breakdown and then...
F#

----------------|
----------------|
3-4-3-----------|
------4-2-------|
----------4-----|
----------------|

F# A Bm

----------------|
----------------|
----2-----------|
2-4---4-2-------|
----------------|
----------------|

Bm A F#

(riff 1)
Loading the gun again
(riff 1)
Dead lead goes in and then
(riff 2)
Catch as catch can and can't
(riff 2)
catch cold and fall apart
(riff 1)
Cold as a distant star
(riff 1)
Hot as a stolen car
(riff 2)
I choke on this heart of hate
(riff 2)
Sometimes I find it hard to get things straight.

F#

----------------|
----------------|
3-4-3-----------|
------4-2-------|
----------4-----|
----------------|

F# A Bm

----------------|
----------------|
----2-----------|
2-4---4-2-------|
----------------|
----------------|

Bm A F#

(riff 1)

----------------|
----------------|
----------------|
----------------|
----------------|
-2--2-2--2------|

-2----2---2-----|
-14---12--11----|
----------------|
----------------|
----------------|
----------------|

(riff 1)

----12----14----|
-14----14-------|
----------------|
----------------|
----------------|
----------------|

(riff 1)

----------------|
-11-12-11-12----|
----------------|
----------------|
----------------|
----------------|

(riff 1)

(? unsure about this part)
----------------|
-14-12-12-12-11-|
----------------|
----------------|
----------------|
----------------|

(riff 1)

----12----14----12----14-|
-14----14----14----14----|
-------------------------|
-------------------------|
-------------------------|
-------------------------|

(riff 1)

----12----14----12----14-------12---|
-14----14----14----14----14-14------|
------------------------------------|
------------------------------------|
------------------------------------|
------------------------------------|

(repeat until end)

----14-|
-14----|
-------|
-------|
-------|
-------|
Добавлено: 17.09.2013
Другие материалы по этой песне:
  • Аккорды и текст

Страница создана 17.09.2013
http://primanota.ru/rowland-s-howard/breakdown-and-then-chords.htm
Привет, Гость.
Предлагаем пройти революционный курс по гитаре.
Подарок от PrimaNota.Ru, забирай!