PrimaNota.ru - самый крупный в мире бесплатный архив песенных текстов, аккордов, табулатур и нот


Rovio - Angry Birds - таба, видео

Регистрация Запомнить меня
Войти через:  Facebook Google Twitter Vk Yandex Mail.ru

Rovio - Angry Birds - таба, видео

Печатать
Просмотров: 706
e[--------7-------7--7-8-6----------------------5-7----7-9-10910910-12-10-9-|
b[--5-785---5-785----------88-7-5---5-7-8-5---8-----8-----------------------|
g[--------------------------------------------------------------------------|
d[--------------------------------------------------------------------------|
a[--------------------------------------------------------------------------|
E[--------------------------------------------------------------------------|

e[-----------------------------7-9-10910910-12-10-9------------9-10-10-10-10-|
b[-12------------------10-12-------------------------12-----12---------------|
g[----9--9-11-12-9--12-------9--------------------------9-9------------------|
d[---------------------------------------------------------------------------|
a[---------------------------------------------------------------------------|
E[---------------------------------------------------------------------------|

e[-10-12-9-----9-10-10-9------------------------7--7--7---------------------|
b[-----------12----------12-12-12--5457-878-10-12-12-12--12-12-12--5457-878-|
g[-------------------------9-----------------------------10-10-10-----------|
d[--------------------------------------------------------------------------|
a[--------------------------------------------------------------------------|
E[--------------------------------------------------------------------------|

e[10----------------------------------------------15-15-15-------------------|
b[---12-12-12-12-12-12-11-11-11-10-11-11-12-12-12-12-12-12-12-11-12-13-12-12-|
g[------------10-10-10-------------------10-10-10----------------------------|
d[---------------------------------------------------------------------------|
a[---------------------------------------------------------------------------|
E[---------------------------------------------------------------------------|

e[-12-----------------------787-----------232--------787------------121412--|
b[----12-12-12-12------8-7-8--------7-7-8------8-7-8----------7-7-8---------|
g[----10-10-10----9-9-----------9-9-----------------------9-9---------------|
d[--------------------------------------------------------------------------|
a[--------------------------------------------------------------------------|
E[--------------------------------------------------------------------------|
Добавлено: 16.05.2012
Другие материалы по этой песне:
  • Аккорды и текст

Страница создана 16.05.2012
http://primanota.ru/rovio/angry-birds-chords.htm
Привет, Гость.
Предлагаем пройти революционный курс по гитаре.
Подарок от PrimaNota.Ru, забирай!