PrimaNota.ru - самый крупный в мире бесплатный архив песенных текстов, аккордов, табулатур и нот


Rotting Out - Laugh Now Die Later - бас-таба, видео

Регистрация Запомнить меня
Войти через:  Facebook Google Twitter Vk Yandex Mail.ru

Rotting Out - Laugh Now Die Later - бас-таба, видео

Печатать
Просмотров: 77
-----------------------------------------------------------------
LAUGH NOW, DIE LATER – Rotting Out
-----------------------------------------------------------------
Tabbed by: Peyton Roberts
Email: p_roberts44@yahoo.com
Tuning: Standard

Intro/Verse/ Chorus (rest or etc. wherever necessary, chorus kind has a different feel 
rhythm wise)
G|---------------------------------------------------------------|
D|---------------------------------------------------------------|
A|-0-0-0-5-3-3-3-3----------0-0-0-5-3-3--------------------------|
E|-------------------------------------3-3-----------------------|

                         Post-Chorus
G|---------------------------------------------------------------|
D|---------------------------------------------------------------|
A|-0-0-0-0-0-3-3-3-3-3-----0-0-0-0-0-6-6-6-6-6------(6-6-5)------|
E|----------------------------------------------every other time-|
              X however many is necessary

G|---------------------------------------------------------------|
D|---------------------------------------------------------------|
A|-6-5-5-5-5---6-5-5-5-5---6-5-5-5-5-----0—0x--------------------|
E|---------------------------------------------------------------|
                      Back to verse etc.

G|---------------------------------------------------------------|
D|---------------------------------------------------------------|
A|-0~~~~~~~~~~~~~----------------0x----------------------6-6-5---|
E|---------------------------------------------------------------|
                          CARLOS!

G|---------------------------------------------------------------|
D|----------------Repeat Post Chorus-----------------------------|
A|---------------------------------------------------------------|
E|---------------------------------------------------------------|


Outro/Bridge thing
G|---------------------------------------------------------------|
D|---------------------------------------------------------------|
A|-0-0-0-4-4-4-4-3-3---0-0-0-0-----0-0-0-4-4-4-4-4-3-3---0-0-0-0-|
E|-------------------3------------------------------3------------|
Repeat throughout
Listen to song for rhythm/rests



Bass Fill
G|---------------5-----------------------------------------------|
D|-----------5h7---7---------------------------------------------|
A|---------------------------------------------------------------|
E|---------------------------------------------------------------|


My first tab! So email or comment if anything is unclear or needs correcting etc. thanks!
Добавлено: 05.10.2013
Другие материалы по этой песне:

Страница создана 10.06.2013
http://primanota.ru/rotting-out/laugh-now-die-later-chords.htm
Привет, Гость.
Предлагаем пройти революционный курс по гитаре.
Подарок от PrimaNota.Ru, забирай!