PrimaNota.ru - самый крупный в мире бесплатный архив песенных текстов, аккордов, табулатур и нот


Rotting Christ - A Sorrowfull Farewell - текст песни, таба, видео

Регистрация Запомнить меня
Войти через:  Facebook Google Twitter Vk Yandex Mail.ru

Rotting Christ - A Sorrowfull Farewell - текст песни, таба, видео

Печатать
Просмотров: 118
Уроки эстрадного вокала в Санкт-Петербурге



Date: Sun, 8 Apr 2001 14:24:20 -0400
From: NICK GOUGKIS 
Subject: r/rotting_christ/sorrowfull_farewell.tab

#-- File created with Instab - http://www.pconline.com/~smcarey/instab.html --#

Author/Artist: rotting christ 
Title: sorrowfull farewell
Album: A dead poem
Transcribed by: Nick speedy Gkougkis
Email: gkougkis@yahoo.com

Just hello from didimotixo

--------------|----------------|--------------|-------------------------|-----
--------------|----------------|--------------|---------------------5^--|-----
--------------|----------------|--------------|---------------5^--------|-----
-2------3--2--|-2-------3--2---|-5------------|--3------5^-------5^-----|-----
-2------3--2--|-2-------3--2---|-5--------5^b-|--3---5^----5^-----------|-----
-0--0-0-1--0--|-0---0-0-1--0---|-3--3-3-3-----|--5--------------------5^|-----
 Intro x4                                             
                       

--------------|----------------|----------------|------------|----------------
--------------|----------------|----------------|------------|----------------
-4--2---------|-4--2-----------|------4-----4---|-2--4--2-4-2|----------------
-------5-4-2--|-------5-4-2----|---5-----5-----5|------------|----------------
--------------|----------------|----------------|------------|----------------
--------------|----------------|----------------|------------|----------------
 melody part 1st guitar x6                            
                       

--------------|--------------------|-------|----------------------|-----------
--------------|--------------12/--2|-------|----------------------|-----------
--------------|--------------12/--2|-------|----------------------|-----------
--------------|---2----------12/--2|-------|----------------------|-----------
--------------|---2----------------|-------|----0x0x0x0x0x0x0x0x0x|-----------
--------------|---0----------------|-------|----------------------|-----------
 --pause------ the 2st guitar play that               
                       

-|----------|--------------|-----------|-------------|------------------------
-|----------|--------------|-----------|-------------|------------------------
-|----------|--------------|-----------|-------------|------------------------
-|2---------|---2----------|-5---------|-3-----------|------------------------
-|2-----2-2-|---2------2-2-|-5------5-5|-3-------3-3-|------------------------
-|0---0-0-0-|---0----0-0-0-|-3---3--3-3|-5----5--5-5-|------------------------
 riff 1  x4.play the 2st guitar the 1st play the
melody part.Words starts     

------------------------------------------|-----------------------------------
------------------------------------------|-----------------------------------
-----2----5-------------------------------|-----------------------------------
-----2----5----2--------------------------|-----------------------------------
-----0----3----2-----7---7---7---7---7-777|-----------------------------------
---------------0---000-000-000-000-000-000|-----------------------------------
  1st and 2st guitar play the same                    
                       

------------------------------------------------------------|-----------------
--------1--------------5------------------------------------|-----------------
--2---2---2------5---5---5----------------------------------|-----------------
--2-2-------2----5-5-------5-----2--------------------------|-----------------
--0--------------3---------------2-----7---7---7---7---7-777|-----------------
---------------------------------0---000-000-000-000-000-000|-----------------
 riff 2 x3                                            
                       

-----------------------------------------------|------------------------------
-----------------------------------------------|------------------------------
--2---2----------------------------------------|------------------------------
--2-2--------------2---------------------------|------------------------------
--0----------------2---7---7---7---7-----------|------------------------------
-------------------0-000-000-000-000-032-032-00|------------------------------
                                                      
                       

--------------|------------|-----------|-------------|------------------------
--------------|------------|-----------|-------------|------------------------
---4--2-------|--4--2------|----4---4--|---2--4-2-4-2|------------------------
---------5-4-2|-------5-4-2|--5---5---5|-------------|------------------------
--------------|------------|-----------|-------------|------------------------
--------------|------------|-----------|-------------|------------------------
  1st guitar play only the melody part again    x4    
                       

----------|----------|----------|----------|----------------------------------
----------|----------|----------|----------|----------------------------------
----------|----------|----------|----------|----------------------------------
-2--------|-2--------|-5--------|-7--------|----------------------------------
-2-----2-2|-2-----2-2|-5-----5-5|-7-----7-7|----------------------------------
-0---0-0-0|-0---0-0-0|-3---3-3-3|-5---5-5-5|----------------------------------
 2st guitar play riff 1 x4                            
                       

--------------------------------------|---------------------------------------
--------------------------------------|---------------------------------------
---2---5------------------------------|---------------------------------------
---2---5---2--------------------------|---------------------------------------
---0---3---2-----7---7---7---7---7-777|---------------------------------------
-----------0---000-000-000-000-000-000|---------------------------------------
  1st and 2st guitar play the same                    
                       

------------------------------------------------------------|-----------------
--------1---------------5-----------------------------------|-----------------
--2---2---2-------5---5---5---------------------------------|-----------------
--2-2-------2-----5-5-------5----2--------------------------|-----------------
--0---------------3--------------2-----7---7---7---7---7-777|-----------------
---------------------------------0---000-000-000-000-000-000|-----------------
 riff 2 x3                                            
                       

---------------------------------------------|--------------------------------
---------------------------------------------|--------------------------------
-2----2--------------------------------------|--------------------------------
-2--2---------2------------------------------|--------------------------------
-0------------2----7---7---7---7-------------|--------------------------------
--------------0--000-000-000-000-032-032-00--|--------------------------------
                                                      
                       

------------------------------------------------------------------------------
------------------------------------------------------------------------------
------------------------------------------------------------------------------
------------------------------------------------------------------------------
-----------------3----------------3----------------3--------------------------
-000000000000000010000000000000000100000000000000001000000///////-------------
 follow the drums rythm                               
                       

------------------------------------|-----------------------------------------
------------------------------------|-----------------------------------------
--------------------------2---------|-----------------------------------------
-2--2---5--3--5-----5--3--2--0--2--2|-----------------------------------------
-2--2---5--3--5-----5--3-----0--2--2|-----------------------------------------
-0---------------------------------0|-----------------------------------------
 riff 3 x6                                            
                       

---------------|--------------|----------|-----------|------------------------
---------------|--------------|----------|-----------|------------------------
--4--2---------|--4--2--------|---4---4--|--2-4-2-4-2|------------------------
----------5-4-2|---------5-4-2|-5---5---5|-----------|------------------------
---------------|--------------|----------|-----------|------------------------
---------------|--------------|----------|-----------|------------------------
 1st guitar play melody part x4                       
                       

---------|----------|----------|----------|-----------------------------------
---------|----------|----------|----------|-----------------------------------
---------|----------|----------|----------|-----------------------------------
-2-------|-2--------|-5--------|-7--------|-----------------------------------
-2----2-2|-2-----2-2|-5-----5-5|-7-----7-7|-----------------------------------
-0--0-0-0|-0---0-0-0|-3---3-3-3|-5---5-5-5|-----------------------------------
 2st guitar play riff 1 x4                            
                       

-----------------------------------|------------------------------------------
-----------------------------------|------------------------------------------
--2--5-----------------------------|------------------------------------------
--2--5---2-------------------------|------------------------------------------
--0--3---2----7---7---7---7---7-777|------------------------------------------
---------0--000-000-000-000-000-000|------------------------------------------
 1st and 2sr guitar play                              
                       

------------------------------------------------------------|-----------------
---------1---------------5----------------------------------|-----------------
--2----2---2-----5----5----5--------------------------------|-----------------
--2--2-------2---5--5--------5---2--------------------------|-----------------
--0--------------3---------------2-----7---7---7---7---7-777|-----------------
---------------------------------0---000-000-000-000-000-000|-----------------
 riff 2 x3                                            
                       

-------------------------------------------|----------------------------------
-------------------------------------------|----------------------------------
--2---2------------------------------------|----------------------------------
--2-2------2-------------------------------|----------------------------------
--0--------2------7---7---7---7------------|----------------------------------
-----------0----000-000-000-000-032-032-00-|----------------------------------
  END  :=)                                            


Добавлено: 04.11.2013
Другие материалы по этой песне:
  • Аккорды и текст

Страница создана 02.06.2012
http://primanota.ru/rotting-christ/a-sorrowfull-farewell-chords.htm
Привет, Гость.
Предлагаем пройти революционный курс по гитаре.
Подарок от PrimaNota.Ru, забирай!