PrimaNota.ru - самый крупный в мире бесплатный архив песенных текстов, аккордов, табулатур и нот


Rossi, Vasco - Timmagini Live - таба, видео

Регистрация Запомнить меня
Войти через:  Facebook Google Twitter Vk Yandex Mail.ru

Rossi, Vasco - Timmagini Live - таба, видео

Печатать
Просмотров: 73
Уроки эстрадного вокала в Санкт-Петербурге
-------------------------------------------------------------------------------
                             T'IMMAGINI - Vasco Rossi
                        Il Mondo Che Vorrei Live 2008 Version
-------------------------------------------------------------------------------
Tabbed by: Francesco Polese
E-mail: francesco.polese@gmail.com

This is my first tab.. I also wrote the solo.. It is not the same in every part 
but it sounds good.. :)
I'm sorry for any other mistakes!

Hope you enjoy it!

Tuning:
EADGBE

This is the INTRO played by Maurizio Solieri
At the second time enters Stef Burns with an open A chord, then enters all the band
    
                              X4 
E||---------------------------||
B||---------------------------||
G||--------------------------*||
D||--7--------5-----4-----7--*||
A||--7--5--7-----7-----5--7---||
E||--5--------------------5---||


A
T'IMMAGINI

                D
la faccia che farebbero
             
              E
se da domani davvero
           
                         D   A A  D D A A
davvero tutti quanti "smettessimo"!!

... And so on..

INTERLUDE PART.. This is what I heard..

e--------------------------|--------------|
b--------------------------|--------------|
g--------------------------|--------------|
d--------------------------|--------------|
a-----7--------5--------4--|--------0h2---|
e--0-----0--0-----0--0-----|--0-----------|


A
A meno che

                     F#m
non siate già tutti d'accordo con me

              D
che c'è qualcosa che...
   
              E
QUALCOSA che non va...
NON SO...PERÒ...MAH!

repeat X2


A                                D
Fantasie, fantasie che volano libere

                          E
fantasie che a volte fan ridere

                          A
fantasie che credono alle favole...

T'IMMAGINI
la fregatura che han preso
quelli che son partiti
tutti di corsa, tutti quanti per il Messico...

T'IMMAGINI
se fosse sempre Domenica
tu fossi sempre libera
e se tua madre fosse meno Nevrotica!!!

INTERLUDE PART like the first!

A                                F#m    F#m F#m F#m
Fantasie, fantasie che volano libere

                          D
fantasie che a volte fan ridere

                          E
fantasie che credono alle favole...
....favole, favole, favole, favole,
favole......FA! FA! FAVOLE!!!!!

The rythm guitar during the solo plays

A    F#m    D     E

/*************************************************************************/
Here's the solo by Solieri

    
E--------------------------|---------------------------|--------|
B--------------------------|---------5-----------------|--------|
G--------------2--4--2-----|--2--4b-----4--2-----------|--------|
D--------2--4-----------4--|------------------4--2--0--|--------|
A--2--4--------------------|---------------------------|--2-----|
E--------------------------|---------------------------|-----2--|


E-------------------------------------|--------------17--15--14----------|
B------17---------------------17--14--|--17--14------------------17--15--|
G------16b--16br--14------14----------|----------16----------------------|
D--14-----------------16--------------|----------------------------------|
A-------------------------------------|----------------------------------|
E-------------------------------------|----------------------------------|


    
E--------------|--------------------------------------------|
B--14----------|--10---10---10-------------------------10---|
G------16--14--|---9b---9b---9--7--9--7-------------11------|
D--------------|--------------------------------------------|
A--------------|--------------------------------------------|
E--------------|--------------------------------------------|


   
E-------------------------------------|--------------------------------||
B--12--12b--12b--12b--12--10--12--10--|--------17br--------------------||
G-------------------------------------|--------------16br--14--16--14--||
D-------------------------------------|--------------------------------||
A-------------------------------------|--------------------------------||
E-------------------------------------|--------------------------------||







************************************

| /   slide up
| \   slide down
| h   hammer-on
| p   pull-off
| ~   vibrato
| +   harmonic
| x   Mute note
| b   Bend
| pb  Pre-bend
| br  Bend release
| pbr Pre-bend release
| brb Bend release bend

************************************
Добавлено: 16.09.2013
Другие материалы по этой песне:
  • Аккорды и текст

Страница создана 16.09.2013
http://primanota.ru/rossi-vasco/timmagini-live-chords.htm
Привет, Гость.
Предлагаем пройти революционный курс по гитаре.
Подарок от PrimaNota.Ru, забирай!