PrimaNota.ru - самый крупный в мире бесплатный архив песенных текстов, аккордов, табулатур и нот


Rossi, Vasco - Ti Prendo E Ti Porto Via - аккорды и текст, таба, видео

Регистрация Запомнить меня
Войти через:  Facebook Google Twitter Vk Yandex Mail.ru

Rossi, Vasco - Ti Prendo E Ti Porto Via - аккорды и текст, таба, видео

Печатать
Просмотров: 125
Ti Prendo E Ti Porto Via
Rossi, Vasco
		   Intro
  D                F#m/D          Bm                G
e -----------0------------------------------0-------------
B -----3---3---3----------3-----------3---3----3-------3--
G ---2---2-------2------2-----------2---2--------2--------
D -0------------------0-----------------------------------
A --------------------------------2-----------------------
E ------------------2-------------------------------3-----


RIT (chit dist)
e ---------------------------12---------------------------
B ----------15---------------------15---------------------
G -11-12-14---------11-12-14----------14-12-11------------
D ---------------------------------------------14--12-----
A --------------------------------------------------------
E --------------------------------------------------------

e ---------------------------12-----------------14-12-----
B ----------15---------------------15-------15--------15--
G -11-12-14---------11-12-14----------12-14---------------
D --------------------------------------------------------
A --------------------------------------------------------
E --------------------------------------------------------


D (sotto tutta la strofa)
Sai ti conosco oramai
Ho capito chi sei
Non ti importa di niente
Tu dimentichi tutto
Senza alcun rispetto
Neanche per noi

Chiedi amore così
Come a chiedere di
Di buttarsi nel cesso

Tanto tu non lo sai
quello che vuoi


RIT
D
Ma dove vai
F#m/D
Ma dove vai
Bm                 G
Tanto oramai sei mia
D
Faccio così
F#m/D
Passo di lì
Bm                 G
Ti prendo e ti porto via

D
Sei gelosa di te
Ti guardi intorno se c'è
una vestita uguale
è che sedurre per te
è più importante che
che respirare

starti vicino si
a volte capita di
di sentirsi un po' in forse
ma tu li baci tutti
e lasci tutto com'è

RIT
D
Ma dove vai
F#m/D
Ma dove vai
Bm                 G
Tanto oramai sei mia
D
Faccio così
F#m/D
Passo di lì
Bm                 G
Ti prendo e ti porto via

RIT
Ma dove vai
Ma dove vai
Tanto oramai sei mia
(anzi) Faccio così
Passo di lì
Ti prendo e ti porto via

D
Sai ti conosco oramai
Ho capito chi sei
Non ti importa di niente

Tu te li baci tutti
E lasci tutto com'è

RIT
Ma dove vai
Ma dove vai
Tanto oramai sei mia
Ma dove vai
Ma dove vai
Ti prendo e ti porto via

RIT
Ma dove vai
Ma dove vai
Tanto oramai sei mia
(anzi) Faccio così
(quando) Passo di lì
Ti prendo e ti porto via

Ma dove vai
     
Добавлено: 18.09.2013
Другие материалы по этой песне:
  • Аккорды и текст

Страница создана 19.05.2012
http://primanota.ru/rossi-vasco/ti-prendo-e-ti-porto-via-chords.htm
Привет, Гость.
Предлагаем пройти революционный курс по гитаре.
Подарок от PrimaNota.Ru, забирай!