PrimaNota.ru - самый крупный в мире бесплатный архив песенных текстов, аккордов, табулатур и нот


Rossi, Vasco - Credi Davvero - текст песни, таба, видео

Регистрация Запомнить меня
Войти через:  Facebook Google Twitter Vk Yandex Mail.ru

Rossi, Vasco - Credi Davvero - текст песни, таба, видео

Печатать
Просмотров: 137
		   CREDI DAVVERO                          VASCO ROSSI

E--------|--------|
B--------|--------|
G--------|--------|
D--------|--------|
A--30--75|--30--75|
E--------|--------|


(LA-)
Credi davvero
(RE7)
che sia sincero
(LA-)                (RE)
quando ti parlo di me?


Credi davvero
che mi spoglio
pio di orgoglio davanti e te?


Non credi d'essere un pò ingenuo?
Non credi d'essere rimasto un pò indietro?
Non ti fidare mai
non sono gli uomini a tradire ma i loro guai...
i loro guai
i loro guai
i loro guai

ma quali salteremo?


E----9---|----7----5|----3--------|
B----10--|----8----6|----3--------|
G----9---|----7----5|----4--------|
D--------|----------|-------------|
A--------|----------|---------3-3-|
E--------|----------|-------------|



E----7----5|----3-------|
B----8----6|----3-------|
G----7----5|----4-------|               (2 volte)
D----------|------------|
A----------|--------3-2-|
E----------|------------|



Credi davvero
che sia diverso
che io sia diverso da chiunque che



si trovasse
un bel giorno
a dover scegliere tra lui e te?



Non c'è nessuno diverso
Non c'è nessuno che sorride quando ha perso
Non ti fidare mai
non sono gli uomini a tradire ma i loro guai...
i loro guai
i loro guai
è una questione di guai



è una questione di guai
di guai
di guai
di guai


è una questione di guai
è una questione di guai
è una questione di guai
è una questione di guai
di guai
di guai
di guai
di guai
di guai
di guai
di guai
di guai
di guai




	     
Добавлено: 14.08.2013
Другие материалы по этой песне:
  • Аккорды и текст

Страница создана 26.06.2012
http://primanota.ru/rossi-vasco/credi-davvero-chords.htm
Привет, Гость.
Предлагаем пройти революционный курс по гитаре.
Подарок от PrimaNota.Ru, забирай!