PrimaNota.ru - самый крупный в мире бесплатный архив песенных текстов, аккордов, табулатур и нот


Ross Lynch - Cruisin For A Bruisin - таба, видео

Регистрация Запомнить меня
Войти через:  Facebook Google Twitter Vk Yandex Mail.ru

Ross Lynch - Cruisin For A Bruisin - таба, видео

Печатать
Просмотров: 369
E|------------|---------------|-10-10-7-------|----7-|----------------| 
B|-7-7--------|---------------|---------------|-10b--|-10p7-------5-5-| 
G|----9-7h8---|---7h8----7h8--|---------9p7---|------|-----9-9-7-6-5--| 
D|----------9-|-7-----9-7---9-|-------------9-|------|----------------| 
A|------------|---------------|---------------|------|----------------| 
E|------------|---------------|---------------|------|----------------|
            3x                              2x     3x

E|----------|-------------------------|--------------------------------|
B|-77777----|-777--77--77--77--7--7---|--------------------------------|
G|------97--|----9b--9b--9b--9b-9b-9b-|-7-7h8---7-----------------6-6--| 
D|--------9-|-------------------------|--9---979-977h9977665544444-4-4-|
A|----------|-------------------------|--------------------------------| 
E|----------|-------------------------|--------------------------------|
          2x

************************************

| /   slide up
| \   slide down
| h   hammer-on
| p   pull-off
| ~   vibrato
| +   harmonic
| x   Mute note
| b   Bend
| pb  Pre-bend
| br  Bend release
| pbr Pre-bend release
| brb Bend release bend

************************************
Добавлено: 15.09.2015
Другие материалы по этой песне:
  • Аккорды и текст

Страница создана 15.09.2015
http://primanota.ru/ross-lynch/cruisin-for-a-bruisin-chords.htm
Привет, Гость.
Предлагаем пройти революционный курс по гитаре.
Подарок от PrimaNota.Ru, забирай!