PrimaNota.ru - самый крупный в мире бесплатный архив песенных текстов, аккордов, табулатур и нот


Ross, Don - Tight tright night - таба, видео

Регистрация Запомнить меня
Войти через:  Facebook Google Twitter Vk Yandex Mail.ru

Ross, Don - Tight tright night - таба, видео

Печатать
Просмотров: 89
Уроки эстрадного вокала в Санкт-Петербурге


                              Tight Trite Night


                                                                 tab by jairettl
Spoor 1



                S                  S                     S          TH   S
     E  S S S S S T T S. T S S S S S T T    S. T S S S S S T T E    Q    S S
E||--------------------------------------|------------------------7------0-|
B||--------------------------------------|------------------------7------0-|
G||--------------------------------------|------------------------7--------|
D||-----------0---0-2----x-------0---0-2-|-----x-------0---0-2---------------|
A||-------0-2--------------x-0-2---------|-------x-0-2-----------------------|
E||--0--x-------x-----0----x-------x-----|--0----x-------x-----0---------x-L-|


            S       S                  S
  S X X X X S S S S S T T S. T S S S S S T T
--L---------0--------------------------------|
----------0-L--------------------------------|
--L-----0---L--------------------------------|
------2-----L-----0---0-2----x-------0---0-2-|
----2-------L-0-2--------------x-0-2---------|
--0-------L-x-------x-----0----x-------x-----|


               S     ^    TH   S
  S. T S S S S S T T E    Q    S S
------------------------7------3-|
------------------------7------0-|
------------------------7--------|
-----x-------0---0-2---------------|
-------x-0-2-----------------------|
--0----x-------x-----0---------x-L-|


            S        S          S           S
  S X X X X S S S. T S T  T S S S S T T T T S S
------------3----------0h-2---2-2-------------0-|
----------0-L-------------------0-------3-------|
--------4---L----------0h-2-----2-------------0-|
------0-----L------0----------------0-4---4-----|
--------------0-2-------------------------------|
--0-------L-x--------x------0---x-x---------x---|


            S       S                  S
  S X X X X S S S S S T T S. T S S S S S S
--L---------0------------------0-----0---3-|
----------0-L------------------0-----0---0-|
--L-----0---L------------------0-----------|
------2-----L-----0-x-0-2----x-------------|
----2-------L-0-2----------------0-2-------|
--0-------L-x-------------0------------x---|


            S        S          S           S
  S X X X X S S S. T S T  T S S S S T T T T S S
------------3----------0h-2---2-2-------------0-|
----------0-L-------------------0-------3-------|
--------4---L----------0h-2-----2-------------0-|
------0-----L------0-x--------------0-4---4-----|
--------------0-2-------------------------------|
--0-------L-x---------------0---x-x---------x---|


            S       S                  S
  S X X X X S S S S S T T S. T S S S S S S
--L---------0----------------------------3-|
----------0-L------------------------------|
--L-----0---L------------------------------|
------2-----L-----0---0-2----x-------0---2-|
----2-------L-0-2--------------x-0-2-------|
--0-------L-x-------x-----0----x-------x---|


            S             S       S         S
  S X X X X S S S X X X X S S S S S T T S S S S
------------3-------------0-0---0-------0-0---2-|
----------0-L-----------3-L-3---3-------2-2-----|
--------0---L---------0---L-------------------0-|
------2-----L-------2-----L---------------------|
--0-------L-x-0-2-3-----L-x-3---3---0-2-2-2-----|
----------------------------------x---------x---|


            S       S                  S
  S X X X X S S S S S T T S. T S S S S S S
--L---------2----------------------------3-|
----------0-L------------------------------|
--L-----0---L------------------------------|
------2-----L-----0---0-2----x-------0---2-|
----2-------L-0-2--------------x-0-2-------|
--0-------L-x-------x-----0----x-------x---|


            S             S
  S X X X X S S S X X X X S S S S S S S S S S
------------3-------------0---------------x-2-|
----------0-L-----------3-L-3-L-3---2---2-x---|
--------0---L---------0---L-3-L-3---2---2-x-0-|
------2-----L-------2-----L-------------------|
--0-------L-x-0-2-3-----L-x---3-3-x---2-------|
----------------------------------x-----------|


            S       S                  S
  S X X X X S S S S S T T S. T S S S S S T T
--L---------2--------------------------------|
----------0-L--------------------------------|
--L-----0---L--------------------------------|
------2-----L-----0---0-2----x-------0---0-2-|
----2-------L-0-2--------------x-0-2---------|
--0-------L-x-------x-----0----x-------x-----|


                         TH    S
  S. T S S S S S T T E    E  E  S S
------------------------7-------3-|
------------------------7---------|
------------------------7---------|
-----x-------0---0-2----------------|
-------x-0-2------------------------|
--0----x-------x-----0-------0--x-L-|


            S        S          S           S
  S X X X X S S S. T S T  T S S S S T T T T S S
------------3----------0h-2---2-2-------------0-|
----------0-L-------------------x-------3-------|
--------4---L----------0h-2-----2-------------0-|
------0-----L------0----------------0-4---4-----|
--------------0-2-------------------------------|
--0-------L-x--------x------0---x-x---------x---|


            S       S                  S
  S X X X X S S S S S T T S. T S S S S S S
--L---------0------------------------0---3-|
----------0-L------------------------0---0-|
--L-----0---L------------------------------|
------2-----L-----0---0-2----x-------------|
----2-------L-0-2--------------x-0-2-------|
--0-------L-x-------x-----0----x-------x---|


            S        S          S           S
  S X X X X S S S. T S T  T S S S S T T T T S S
------------3----------0h-2---2-2-------------0-|
----------0-L-------------------x-------3-------|
--------4---L----------0h-2-----2-------------0-|
------0-----L------0----------------0-4---4-----|
--------------0-2-------------------------------|
--0-------L-x--------x------0---x-x---------x---|


            S       S                  S
  S X X X X S S S S S T T S. T S S S S S S
--L---------0----------------------------3-|
----------0-L------------------------------|
--L-----0---L------------------------------|
------2-----L-----0---0-2----x-------0---2-|
----2-------L-0-2--------------x-0-2-------|
--0-------L-x-------x-----0----x-------x---|


            S             S       S       S
  S X X X X S S S X X X X S S S S S S S S S S
------------3-------------0---2-2-----0-0---2-|
----------0-L-----------3-L---3-3-----2-2-----|
--------0---L---------0---L-----------------0-|
------2-----L-------2-----L-------------------|
--0-------L-x-0-2-3-----L-x-3-----L-2-----L---|
----------------------------------x-------x---|


            S       S                  S
  S X X X X S S S S S T T S. T S S S S S S
--L---------2----------------------------3-|
----------0-L------------------------------|
--L-----0---L------------------------------|
------2-----L-----0---0-2----x-------0---2-|
----2-------L-0-2--------------x-0-2-------|
--0-------L-x-------x-----0----x-------x---|


            S             S       S       S
  S X X X X S S S X X X X S S S S S S S S S S
------------3-------------0-2---2---0---0---2-|
----------0-L-----------3-L-3-L-3---2---2-----|
--------0---L---------0---L---L-------------0-|
------2-----L-------2-----L-------------------|
--0-------L-x-0-2-3-----L-x---3-------2-------|
----------------------------------x-------x---|


            S       S                  ^
  S X X X X S S S S S T T S. T S S S S E
--L---------2------------------------------|
----------0-L------------------------------|
--L-----0---L------------------------------|
------2-----L-----0---0-2----x-------x-----|
----2-------L-0-2--------------x-0-2-------|
--0-------L-x-------x-----0----x-------3S--|


      S                      S
  S S S T T S. T S T  T S  S S T T T T S T T S
-----------------x--------10-------0---L-0---L-|
----8-------5----x-7h-8----L-------8---L-8---L-|
----9-------5----x----L----L-------7---L-7---L-|
---------------x-------------------------------|
-------------------------------------7-----7---|
--8---x-x-x-5------8----x----x-0-0-----0-----0-|


      S                      S             S
  S S S T T S. T S T  T S  S S  S  S    E  S
-----------------x--------10---10--L-12--0-|
----8-------5----x-7h-8----L---10--L---12--0-|
----9-------5----x----L----L---11--L---12----|
---------------x-----------------------------|
-------------------------------------------x-|
--8---x-x-x-5------8----x----x-----0----L--x-|


       S       S      S                                        S
  S. T E  S. T S E  S S T T S X X X X E     S. T S S S S S E.  E  S. T S S
--7--L----5--L---7--7-------0---------0--|-------x-------x--------3--3-x-0-|
--8--L----5--L---8--8-------8-------8-L--|-----3-x---3-L-x-3---3--3--3-x---|
-----x-------x--------------7-----7---L--|-----0-x---2-L-x-2---2--2--2-x-0-|
-----------------------------------------|-----------------1---1-----------|
------------------------5-7-7---7-----L--|-------------3---2---2-----------|
--8--L-x--5--L-x-7--7-x-------0-------L--|--3------2-------0---x--1--1---0-|


             S                  S                     S          TH   S
  E  S S S S S T T S. T S S S S S T T    S. T S S S S S T T E    Q    S S
--L--0--------------------------------|------------------------7------3-|
-----0--------------------------------|------------------------7--------|
--L--0--------------------------------|------------------------7--------|
-----2-----0---0-2----x-------0---0-2-|-----x-------0---0-2---------------|
-----2-0-2--------------x-0-2---------|-------x-0-2-----------------------|
-----0-------x-----0----x-------x-----|--0----x-------x-----0---------x-L-|


            S        S          S           S
  S X X X X S S S. T S T  T S S S S T T T T S S
------------3----------0h-2---2-2-------------0-|
----------0-L-------------------0-------3-------|
--------4---L----------0h-2-----2-------------0-|
------0-----L------x----------------0-4---4-----|
--------------0-2-------------------------------|
--0-------L-x--------x------0---x-x---------x---|


            S       S                 S
  S X X X X S S S S S S  S. T S S S S S S
--L---------0-----------------------0---3-|
----------0-L-----------------------0---0-|
--L-----0---L-----------------------------|
------2-----L-----0---2~-L--x-------------|
----2-------L-0-2-------------x-0-2-------|
--0-------L-x-------x----0----x-------x---|


            S        S          S           S
  S X X X X S S S. T S T  T S S S S T T T T S S
------------3----------0h-2---2-2-------------0-|
----------0-L-------------------0-------3-------|
--------4---L----------0h-2-----2-------------0-|
------0-----L------x----------------0-4---4-----|
--------------0-2-------------------------------|
--0-------L-x--------x------0---x-x---------x---|


            S       S                  S
  S X X X X S S S S S T T S. T S S S S S S
--L---------0----------------------------3-|
----------0-L------------------------------|
--L-----0---L------------------------------|
------2-----L-----0---0-2----x-------0---2-|
----2-------L-0-2--------------x-0-2-------|
--0-------L-x-------x-----0----x-------x---|


            S             S       S      S
  S X X X X S S S X X X X S S S S S E  S S S
------------3-------------0-2---2---0--0---2-|
----------0-L-----------3-L-3-L-3---2--2-----|
--------0---L---------0---L---L------------0-|
------2-----L-------2-----L------------------|
--0-------L-x-0-2-3-----L-x---3-----2--2-----|
----------------------------------x------x---|


            S       S                  S
  S X X X X S S S S S T T S. T S S S S S S
--L---------2----------------------------3-|
----------0-L------------------------------|
--L-----0---L------------------------------|
------2-----L-----0---0-2----x-------0---2-|
----2-------L-0-2--------------x-0-2-------|
--0-------L-x-------x-----0----x-------x---|


            S             S       S       S
  S X X X X S S S X X X X S S S S S S S S S S
------------3-------------0---2-------0-----2-|
----------0-L-----------3-L---3-------2-------|
--------0---L---------0---L---L-------------0-|
------2-----L-------2-----L-------------------|
--0-------L-x-0-2-3-----L-x-3---3---2---2-----|
----------------------------------x-------x---|


            S       S
  S X X X X S S S S S T T S. T S S S E.
--L---------2-----------------------------|
----------0-L-----------------------------|
--L-----0---L-----------------------------|
------2-----L-----0---0-2----x------------|
----2-------L-0-2--------------x-x-2------|
--0-------L-x-------x-----0----x-----3S---|


      S                      S
  S S S T T S. T S T  T S  S S T T T T S T T S
-----------------x--------10-------0---L-0---L-|
----8-------5----x-7h-8----L-------8---L-8---L-|
----9-------5----x----L----L-------7---L-7---L-|
---------------x-------------------------------|
-------------------------------------7-----7---|
--8---x-x-x-5------8----0----x-0-0-----0-----0-|


      S                      S             S
  S S S T T S. T S T  T S  S S  S  S    E  S
-----------------x--------10---10--L-12--0-|
----8-------5----x-7h-8----L---10--L---12--0-|
----9-------5----x----L----L---11--L---12--0-|
---------------x-----------------------------|
-----------------------------x-------------x-|
--8---x-x-x-5------8----0----x-----0----L--x-|


       S       S      S                                        S
  S. T E  S. T S E  S S T T S X X X X E     S. T S S S S S E.  E  S. T S S
--7--L----5--L---7--7-------0---------0--|-------x----------------3--3-x-0-|
--8--L----5--L---8--8-------8-------8-L--|-----3-x---3-L---3---3--3--3-x---|
-----x-------x--------------7-----7---L--|-----0-x---2-L---2---2--2--2-x-0-|
-----------------------------------------|-----------------1---1-----------|
------------------------5-7-7---7-----L--|-------------3-2-2---2-----------|
--8--L-x--5--L-x-7--7-x-------0-------L--|--3------2-------0---x--1--1---0-|


             S                  S                     S
  E  S S S S S T T S. T S S S S S T T    S. T S S S S S T T S. T S S S S S  S
--L--0--------------------------------|----------------------------------x-12-|
-----0--------------------------------|----------------------------------x-12-|
--L--0--------------------------------|----------------------------------x-12-|
-----2-----0---0-2----x-------0---0-2-|-----x-------0---0-2----x-------0------|
-----2-0-2--------------x-0-2---------|-------x-0-2--------------x-0-2--------|
-----0-------x-----0----x-------x-----|--0----x-------x-----0----x------------|


  S  S S  S S  S S   S S S S X X X X S S S   S
----12-x-10---10-x-7g8---8-8---------7-7-x-6g7-|
----12-x------12-x-----------------0-L-0-x-----|
----12-x---------x-8g9---9-9-----7---L-7-x-6g7-|
---------------------------0---0-----L-0-------|
-----------------------0-----------------------|
--0---------x----------------------------------|


  S S S S T  T T T S S S S S. X X S S S  S
----5-x---3p-0-3-0---0-----0------0-0-x-12-|
------x--------------------0------0-0-x-12-|
----5-x-5------------0-----0----0-L-0-x-12-|
-------------------4-------2----2-L-2------|
-------------------------2-2--2---L-2------|
--0--------------------0---0--0---L-0------|


  S  S S  S S  S S   S S S S X X X X S S S   S
----12-x-10---10-x-7g8---8-8---------7-7-x-6g7-|
----12-x------12-x-----------------0-L-0-x-----|
----12-x---------x-8g9---9-9-----7---L-7-x-6g7-|
---------------------------0---0-----L-0-------|
-----------------------0-----------------------|
--0---------x----------------------------------|


  S. X  X  S.X X S. X X S. X X S. X X E  E  S S
----------12-----7------5------3------2--0--x----|
-----------x-----x------x------x------x--0--x----|
-------11--L---7-L----5------4------2-L--0--x----|
--------0--L---0-L----0-L----0------0-L--0--x----|
-----0-----L-0---L--0---L--0---L--0---L--0--x----|
--0--------------------------------------0--x-3S-|


      S                      S
  S S S T T S. T S T  T S  S S T T T T S T T S
-----------------x--------10-------0---L-0---L-|
----8-------5----x-7h-8----L-------8---L-8---L-|
----9-------5----x----L----L-------7---L-7---L-|
---------------x-------------------------------|
-------------------------------------7-----7---|
--8---x-x-x-5------8----0----x-0-0-----0-----0-|


      S                      S             S
  S S S T T S. T S T  T S  S S  S  S    E  S
-----------------x--------10---10--L-12--0-|
----8-------5----x-7h-8----L---10--L---12--0-|
----9-------5----x----L----L---11--L---12--0-|
---------------x-----------------------------|
-----------------------------x-------------x-|
--8---x-x-x-5------8----0----x-----0----L--x-|


       S       S      S                                        S
  S. T E  S. T S E  S S T T S X X X X E     S. T S S S S S E.  S S S. T S S
--7--L----5--L---7--7-------0---------0--|-------x-----------------3--3---0-|
--8--L----5--L---8--8-------8-------8-L--|-----3-x---3-L---3-------3--3---0-|
-----x-------x--------------7-----7---L--|-----0-x---2-L---2-------2--2---0-|
-----------------------------------------|-----------------1----------------|
------------------------5-7-7---7-----L--|-------------3-2-2----------------|
--8--L-x--5--L-x-7--7-x-------0-------L--|--3------2-------0---x-0-1--1---0-|


             S                  S                     S                  S
  E  S S S S S T T S. T S S S S S T T    S. T S S S S S T T S. T S S S S S T T
--L--0--------------------------------|----------------------------------------|
-----0--------------------------------|----------------------------------------|
--L--0--------------------------------|----------------------------------------|
-----2-----0---0-2----x-------0---0-2-|-----x-------0---0-2----x-------0---0-2-|
-----2-0-2--------------x-0-2---------|-------x-0-2--------------x-0-2---------|
-----0-------x-----0----x-------x-----|--0----x-------x-----0----x-------x-----|


               S                  S        ^            S     ^    TH
  S. T S S S S S T T S. T S S S S S T T    S. T S S S S S T T E    E  E  S S
----------------------------------------|------------------------7-------3-|
----------------------------------------|------------------------7-------0-|
----------------------------------------|------------------------7---------|
-----x-------0---0-2----x-------0---0-2-|-----x-------0---0-2----------------|
-------x-0-2--------------x-0-2---------|-------x-0-2------------------------|
--0----x-------x-----0----x-------x-----|--0----x-------x-----0-------0--x-L-|


            S          S          S           S
  S X X X X T T S S. T S T  T S S S S T T T T S S
------------3------------0h-2---2-2-------------0-|
----------0-x---------------------0-------3-------|
--------4---x------------0h-2-----2-------------0-|
------0-----x--------x----------------0-4---4-----|
----------------0-2-------------------------------|
--0-------L-x----------x------0---x-x---------x---|


  S X X X X T T S S S S S  S. T S S S S S S
--L---------0-------------------------0-x-3-|
----------0-x---------------------------x---|
--L-----0---x-------------------------0-x---|
------2-----x-------x---2b----x-------------|
----2-------x---0-2---x---------x-0-2-------|
--0-------L-x---------x----0----x-----------|


            S        S          S           S
  S X X X X S S S. T S T  T S S S S T T T T S S
------------3----------0h-2---2-2-------------0-|
----------0-x-------------------0-------3-------|
--------4---x----------0h-2-----2-------------0-|
------0-----x------x----------------0-4---4-----|
--------------0-2-------------------------------|
--0-------L-x--------x------0---x-x---------x---|


  S X X X X S S S S S S  S. T S S S S S S
--L---------0-----------------------0-x-3-|
----------0-x-------------------------x---|
--L-----0---x-----------------------0-x---|
------2-----x-----x---2b----x-----------2-|
----2-------x-0-2---x---------x-0-2-------|
--0-------L-x-------x----0----x-----------|


            S         S       S       S
  S X X X X S S S T T S S S S S S S S S S
------------3-----0-----2-------0-------2-|
----------0-x---------------L-----2-------|
--------0---x-----------L-4-2-------2---0-|
------2-----x-----------L-----------------|
--0-------L-x-0-2-3-----3---L---2---L-----|
------------x---------x-------x-------x---|


            S
  S X X X X S S S S S S  S. T S S S S S S
--L---------2-------x---------x-----0-x-3-|
----------0-x-------x---------x-------x---|
--L-----0---x-------x---------x-----0-x-2-|
------2-----x-----0---2b----x-------------|
----2-------x-0-2---------------0-2-------|
--0-------L-x------------0----------------|


      S       S         S         S
  S S S S S S S S S T T S S S T T S S    S T T S S S S S S  S. T S S S S E
----3-----------0---0-----0---0-----2-|--L-2---2-------x---------x-----x-----|
----------------3---3-----2---2-----0-|----0---0-------x---------x-----x-----|
--------------------------------------|--L-----0-------x---------x-----x-----|
----2-------0-------------------------|--------------0---2b----x-------------|
--0-----0-2-------3-L-------2---------|----------0-2---------------0-2-------|
------x-------x---------x---------x---|--0------------------0------------3S--|


  E  S S S S S T  T S  S S T T S T T T T T T
----------------------10---------------------|
-----8---5---5-7h-8-L----------8---8---------|
-----9---5---5----L-L----------7---7---------|
---------------------------------------------|
---------------------------7-----7-----7-----|
--8--x---5-5---8----0--------0-----------0---|


                               S             S
  S S T T T T S. T S T  T S  S S  S  S    E  S
-------------------x--------10---10--L-12----|
----8---------5----x-7h-8----L---10--L---12----|
----9---------5----x----L----L---11--L---12----|
-----------------x-----------------------------|
--------7----------------------x-------------x-|
--x-------0-x-5------8----0----x-----0-------x-|


                                                             S
  S S S S S S S E  S S S S S S S    S. T S S S S S E.  E  S. T S S
--7-----5---0-x----7-x-0-----0-x-|-------x-------x--------3--3-x-0-|
--8-8-x-----L-x-8--8-x-8-----8-x-|-----3-x---3-3-x-3---3--3--3-x-0-|
----9-x-------x-7----x-7-----7-x-|-----0-x---2-2-x-2---2--2--2-x-0-|
------x--------------------------|-----------------1---1-----------|
---------------------------7-7---|-------------3---2---2-----------|
--8-8---5-x-5---7--------0-------|--3------2-------0---0--1--x---0-|


             S     ^            S        ^            S     ^            S
  E  S S S S S T T S. T S S S S S T T    S. T S S S S S T T S. T S S S S S T T
-----0--------------------------------|----------------------------------------|
-----0--------------------------------|----------------------------------------|
-----0--------------------------------|----------------------------------------|
-----2-----0---0-2----x-------0---0-2-|-----x-------0---0-2----x-------0---0-2-|
-----2-0-2--------------x-0-2---------|-------x-0-2--------------x-0-2---------|
-----0-------x-----0----x-------x-----|--0----x-------x-----0----x-------x-----|


  ^            S     ^            S        ^            S     ^
  S. T S S S S S T T S. T S S S S S T T    S. T S S S S S T T S Q    E.
----------------------------------------|--------------------------------||
----------------------------------------|--------------------------------||
----------------------------------------|--------------------------------||
-----x-------0---0-2----x-------0---0-2-|-----x-------0---0-2------------||
-------x-0-2--------------x-0-2---------|-------x-0-2---------2----------||
--0----x-------x-----0----x-------x-----|--0----x-------x-----0----------||




Duration Legend
---------------
W - whole
H - half
Q - quarter
E - 8th
S - 16th
T - 32nd
X - 64th
. - note dotted
|-n-|  - n-tuplets


Tablature Legend
----------------
L - tied note
x - dead note
g - grace note
(n) - ghost note
 - accentuded note
NH - natural harmonic
AH - artificial harmonic
TH - tapped harmonic
SH - semi harmonic
PH - pitch harmonic
h - hammer on
p - pull off
b - bend
br - bendRelease
pb - preBend
pbr - preBendRelease
brb - bendReleaseBend
n/ - tremolo bar dip
n - tremolo bar dive
-/n - tremolo bar Release up
/n - tremolo bar inverted dip
/n - tremolo bar return
-n - tremolo bar Release down
S - shift slide
s - legato slide
/ -  slide into from below or out of upwards
 -  slide into from above or out of downwards
~ - vibrato
W - wide vibrato
tr - trill
TP - tremolo picking
T - tapping
S - slap
P - pop
 - fade in
^ - brush up
v - brush down

Добавлено: 11.12.2013
Другие материалы по этой песне:
  • Аккорды и текст

Страница создана 11.12.2013
http://primanota.ru/ross-don/tight-tright-night-chords.htm
Привет, Гость.
Предлагаем пройти революционный курс по гитаре.
Подарок от PrimaNota.Ru, забирай!