PrimaNota.ru - самый крупный в мире бесплатный архив песенных текстов, аккордов, табулатур и нот


Roseway - Boston Tea Party - таба, видео

Регистрация Запомнить меня
Войти через:  Facebook Google Twitter Vk Yandex Mail.ru

Roseway - Boston Tea Party - таба, видео

Печатать
Просмотров: 106
Уроки эстрадного вокала в Санкт-Петербурге
-------------------------------------------------------------------------------
                             Boston Tea Party - Roseway
-------------------------------------------------------------------------------
Tabbed by: Alex Emry
e-mail: alexemry@hotmail.com

Roseway is a Christian/Hardcore/Screamo band from Portland.
They aren't as popular as they should be. 
I'm friends with the members of the band so their Guitarist gave me the tab for this song.

To find the track and band profile check out http://www.myspace.com/rosewaymusic

Drop D tuning
(D-A-D-G-B-e)

. = palm-muted
~ = vibrato/tremolo
/ = slide
* = natural harmonic
# = unnatural/pinch harmonic
()= optional notes/chords
h = hammer-on
p = pull-off
b = bend up
x = mute/strum across muted strings


Intro/Verse

Gtr. 1 (intro & verse) Gtr. 2 (intro only)
e|-----------------------|------------------------|
B|-----------------------|------------------------|
G|-----------------------|------------------------|
D|-4--4-7-6--------------|-4->---44x---0->----00x-|
A|-4--------7-4-4h7-(2x)-|-4->---44x---0->----00x-|
D|-4-4-4-4-4-4-4---------|-4->---44x---0->----00x-|

e|------------------------------------------------|
B|------------------------------------------------|
G|------------------------------------------------|
D|-0--4-7-6---------0--4-7-6-7h9p7p6-6h7p6--------|
A|-0--------7-4-4h7-0---------------------7h9-----|
D|-0-0-0-0-0-0-0----0-0-0-0-----------------------|

Gtr. 2 (verse only)
e|------------------------------------------------|
B|------------------------------------------------|
G|------6-4------------------6-4------------------|
D|-4--7-----6----6------0--7-----6----6-----------|
A|-4----------7-7--(2x)-0----------7-7------------|
D|-4-4-4-4-4-4-4--------0-0-0-0-0-0-0-------------|

Gtr. 3 (filler part)
e|---------------------------|--------------------|
B|---------------------------|--------------------|
G|------6-4-6h7p6p4-4h6p4----|--------------------|
D|-0--7------------------6h7-|-4->--------0->-----|
A|-0-------------------------|-4->--------0->-----|
D|-0-0-0-0-------------------|-4->--------0->-----|


Pre-Chorus

Gtr. 1
e|------------------------------------------------|
B|------------------------------------------------|
G|------------------------------------------------|
D|-44444x---4-44---44444x---4-4p2---00000x---0-0h2|
A|-44444x---4-44---44444x---4-4p2---00000x---0-0h2|
D|-44444x---4-44---44444x---4-4p2---00000x---0-0h2|
. .. . . . . . .
e|------------------------------------------------|
B|------------------------------------------------|
G|------------------------------------------------|
D|-00000x---0-0h2---------------------------------|
A|-00000x---0-0h2---------------------------------|
D|-00000x---0-0h2---------------------------------|
. . .

Gtr. 2 (2nd bar only)
(10's, 11's, 12's; not 0's, 1's, 2's)
e|------------------------------------------------|
B|------------------------------------------------|
G|-14141414x-13-13-13x--13-13-13-13-14141414x-----|
D|--x-x-x-xx--x--x--xx---x--x--x--x--x-x-x-xx-----|
A|-12121212x-11-11-11x--11-11-11-11-12121212x-----|
D|------------------------------------------------|

e|------------------------------------------------|
B|------------------------------------------------|
G|-13131313/999/11/9-14141414x-131313/999/11-9----|
D|--x-x-x-x-xxx--x-x--x-x-x-xx--x-x-x-xxx--x-x----|
A|-11111111/777/-9/7-12121212x-111111/777/-9/7----|
D|------------------------------------------------|

e|------------------------------------------------|
B|------------------------------------------------|
G|-6666x-666/9999/10101010------------------------|
D|-xxxxx-xxx-xxxx--x-x-x-x------------------------|
A|-4444x-444/7777/-8-8-8-8------------------------|
D|------------------------------------------------|


Chorus

Gtr. 1 (basic strumming pattern w/ passing tones)
e|------------------------------------------------|
B|------------------------------------------------|
G|-------6---9-----9--------------4/6/7/9/11------|
D|-7-6-7-4-7-7-9-7-7-7h9h11p9p7-0-x-x-x-x--x------|
A|-4-4-4-4-7-7-7-7-7-7-7--7-7-7-0-2/4/5/7/-9------|
D|-4-4-4-4-7-7-7-7-7-7-7--7-7-7-0-----------------|

e|------------------------------------------------|
B|------------------------------------------------|
G|-------------------66/77/66---99/1111/99--------|
D|-2-4-2-3-6---7-6-7-xx-xx-xx-7-xx/-x-x/xx--------|
A|-2-2-2-4-4---4-4-4-44/55/44-7-77/-9-9/77--------|
D|-2-2-2-3-3---4-4-4----------7-------------------|

e|------------------------------------------------|
B|----------------(333/5/7)>----------------------|
G|-----------------444/6/7->----------------------|
D|-0000x-0000x-000-444/6/7->----------------------|
A|-0000x-0000x-000-222/4/5->----------------------|
D|-0000x-0000x-000--------------------------------|

Gtr. 2
e|------------------------------------------------|
B|------------------------------------------------|
G|------------------------------------------------|
D|-44444444-77777777-00000000-4444-6666-----------|
A|-44444444-77777777-00000000-2222-4444-----------|
D|-44444444-77777777-00000000-2222-3333-----------|

e|------------------------------------------------|
B|------------------------------------------------|
G|-----------------------------------4444/6/7->---|
D|-44444444-77777777-0000x-0000x-000-4444/6/7->---|
A|-44444444-77777777-0000x-0000x-000-2222/4/5->---|
D|-44444444-77777777-0000x-0000x-000--------------|


Pre-Verse Break (Gtr. 2 only; after Chorus only)

e|------------------------------------------------|
B|------------------------------------------------|
G|------------------------------------------------|
D|-2h444x--2h444x-xx12/---------------------------|
A|-2h444x--2h444x-xx12/---------------------------|
D|-2h444x--2h444x-xx12/---------------------------|


Bridge

Gtr. 1 (11's, 12's, 13's, etc. not 1's, 2's, 3's)
e|----------|-------------------------------------|
B|----------|-------------------------------------|
G|-11-------|-111111111111111111111111/9999-------|
D|--x-(16x)-|--x-x-x-x-x-x-x-x-x-x-x-x-xxxx-(4x)--|
A|--9-------|--9-9-9-9-9-9-9-9-9-9-9-9/7777-------|
D|----------|-------------------------------------|

e|------------------------------------------------|
B|------------------------------------------------|
G|-1111111111111111/131313/11/9-------------------|
D|--x-x-x-x-x-x-x-x--x-x-x--x-x-------------------|
A|--9-9-9-9-9-9-9-9/111111/-9/7-------------------|
D|------------------------------------------------|

e|------------------------------------------------|
B|------------------------------------------------|
G|-11111111111111111111111111/9999----------------|
D|--x-x-x-x-x-x-x-x-x-x-x-x-x-xxxx-(3x)-----------|
A|--9-9-9-9-9-9-9-9-9-9-9-9-9/7777----------------|
D|------------------------------------------------|

e|------------------------------------------------|
B|------------------------------------------------|
G|-1111111111111111/14/13/11/9--------------------|
D|--x-x-x-x-x-x-x-x--x--x--x-x--------------------|
A|--9-9-9-9-9-9-9-9/12/11/-9/7--------------------|
D|------------------------------------------------|

Gtr. 2
e|------------------------------------------------|
B|------------------------------------------------|
G|-141414141414141414141414/13131313--------------|
D|--x-x-x-x-x-x-x-x-x-x-x-x--x-x-x-x-(4x)---------|
A|-121212121212121212121212/11111111--------------|
D|------------------------------------------------|

e|------------------------------------------------|
B|------------------------------------------------|
G|-1414141414141414/161616/14/13------------------|
D|--x-x-x-x-x-x-x-x--x-x-x--x--x------------------|
A|-1212121212121212/141414/12/11------------------|
D|------------------------------------------------|

e|------------------------------------------------|
B|------------------------------------------------|
G|-141414141414141414141414/13131313--------------|
D|--x-x-x-x-x-x-x-x-x-x-x-x--x-x-x-x-(3x)---------|
A|-121212121212121212121212/11111111--------------|
D|------------------------------------------------|

e|------------------------------------------------|
B|------------------------------------------------|
G|-1414141414141414/18/16/14/13-------------------|
D|--x-x-x-x-x-x-x-x--x--x--x--x-------------------|
A|-1212121212121212/16/14/12/11-------------------|
D|------------------------------------------------|


Post-Bridge

Gtr. 1 Gtr. 2
e|-------------------|----------------------------|
B|-------------------|----------------------------|
G|-11----------------|----------------------------|
D|--x-(24x)-xxxxxxxx-|-0->---------------xxxxxxxx-|
A|--9-------xxxxxxxx-|-0->---------------xxxxxxxx-|
D|----------xxxxxxxx-|-0->---------------xxxxxxxx-|


Outro A

Gtr. 1
e|--------------------------------------|---------|
B|--------------------------------------|---------|
G|--------------------------------------|---------|
D|-0000--0000--222-4444--44444-777------|-0->-----|
A|-0000--0000--222-4444--44444-777-(4x)-|-0->-----|
D|-0000--0000--222-4444--44444-777------|-0->-----|

Gtr. 2
e|------------------------------------------------|
B|------------------------------------------------|
G|-1111111111111111111111/13131313/14141414x------|
D|--x-x-x-x-x-x-x-x-x-x-x--x-x-x-x--x-x-x-x-------|
A|--9-9-9-9-9-9-9-9-9-9-9/11111111/12121212x------|
D|------------------------------------------------|

e|----------------------------|-------------------|
B|----------------------------|-------------------|
G|-141414141414/18181818------|-11->--------------|
D|--x-x-x-x-x-x--x-x-x-x-(4x)-|--x----------------|
A|-121212121212/16161616------|--9->--------------|
D|----------------------------|-------------------|


Outro B (Breakdown)

Gtr. 1
e|------------------------------------------------|
B|------------------------------------------------|
G|------------------------------------------------|
D|-000000000->-----00-00-0->-----000000000->------|
A|-000000000->-----00-00-0->-----000000000->------|
D|-000000000->-----00-00-0->-----000000000->------|
......... .. .. . .........
e|------------------------------------------------|
B|------------------------------------------------|
G|------------------------------------------------|
D|-00-00h2-2-444444444->-----44-44-4->------------|
A|-00-00h2-2-444444444->-----44-44-4->------------|
D|-00-00h2-2-444444444->-----44-44-4->------------|
.. .. . . ......... .. .. .
e|---------------------------|--------------------|
B|---------------------------|--------------------|
G|---------------------------|--------------------|
D|-444444444->-----44-44-7-7-|-0->----------------|
A|-444444444->-----44-44-7-7-|-0->----------------|
D|-444444444->-----44-44-7-7-|-0->----------------|
......... .. .. . .
Gtr. 2
e|------------------------------------------------|
B|---3---3---3---3---3---3---3-------3---3---3---3|
G|-6---6---6---6---6---6---6---6---6---6---6---6--|
D|------------------------------------------------|
A|------------------------------------------------|
D|------------------------------------------------|

e|-----------------------------------------------9|
B|---3---3---3--------8---8---8---8---8---8---8-10|
G|-6---6---6---6-/9/11--11--11--11--11--11--11--11|
D|------------------------------------------------|
A|------------------------------------------------|
D|------------------------------------------------|

e|-------------------9----9-----|-12------12----12|
B|---8---8---8---8----10---10---|---10------10----|
G|-11--11--11--11--11---11---11-|-----11------11--|
D|------------------------------|-----------------|
A|------------------------------|-----------------|
D|------------------------------|-----------------|

END!!!

Song Order:

Intro 2x
Verse 2x
Pre-Chorus
Chorus
Pre-Verse Break
Verse 2x
Pre-Chorus
Bridge
Post-Bridge
Outro A
Outro B 

| /  slide up
| \  slide down
| h  hammer-on
| p  pull-off
| ~  vibrato
| +  harmonic
| x  Mute note
===============================================================================
Добавлено: 17.06.2012
Вам также может быть интересно:
Другие материалы по этой песне:
  • Аккорды и текст

Страница создана 17.06.2012
http://primanota.ru/roseway/boston-tea-party-chords.htm
Привет, Гость.
Предлагаем пройти революционный курс по гитаре.
Подарок от PrimaNota.Ru, забирай!