PrimaNota.ru - самый крупный в мире бесплатный архив песенных текстов, аккордов, табулатур и нот


Rose Blossom Punch - Confused - текст песни, таба, видео

Регистрация Запомнить меня
Войти через:  Facebook Google Twitter Vk Yandex Mail.ru

Rose Blossom Punch - Confused - текст песни, таба, видео

Печатать
Просмотров: 80
		   Confused
Rose Blossom Punch: Ephemere
Tabbed by Collin Derrick
E-mail:ejd@china2.ygi.edu.cn
Copyright 1997 Sarabellum Records

this song is a mix of electric and acoustic guitar, because i don't have an electric i will do my
best to do it right

Verse:(repeat)
D|------0-0---0-0-|------0-0---0-0-|------0-0---0-0-|------0-0---0-0-|
A|---9-9---4-4-4--|---9-9---4-4-4--|---9-9---4-4-4--|---9-9---4-4-4--|
             took me awhile just to give it away

D|------0-0---0-0-|------0-0---0-0-|------0-0---0-0-|------0-0---0-0-|
A|---9-9---4-4-4--|---9-9---4-4-4--|---9-9---4-4-4--|---9-9---4-4-4--|
             i've been saving it up, saving it up

D|---5-5-5-5-5-5-5-5-3-3-3-3-3-3-3-3-|
A|---5-5-5-5-5-5-5-5-3-3-3-3-3-3-3-3-|
E|---3-3-3-3-3-3-3-3-1-1-1-1-1-1-1-1-|
                     no

D|------0-0---0-0-|------0-0---0-0-|------0-0---0-0-|------0-0---0-0-|
A|---9-9---4-4-4--|---9-9---4-4-4--|---9-9---4-4-4--|---9-9---4-4-4--|

D|------0-0---0-0-|------0-0---0-0-|------0-0---0-0-|------0-0---0-0-|
A|---9-9---4-4-4--|---9-9---4-4-4--|---9-9---4-4-4--|---9-9---4-4-4--|
             took me awhile just to tell you the truth

D|------0-0---0-0-|------0-0---0-0-|------0-0---0-0-|------0-0---0-0-|
A|---9-9---4-4-4--|---9-9---4-4-4--|---9-9---4-4-4--|---9-9---4-4-4--|
             i've been saving it up, saving it up

D|---5-5-5-5-5-5-5-5-3-3-3-3-3-3-3-3-|------0-0---0-0-|------0-0---0-0-|
A|---5-5-5-5-5-5-5-5-3-3-3-3-3-3-3-3-|---9-9---4-4-4--|---9-9---4-4-4--|
E|---3-3-3-3-3-3-3-3-1-1-1-1-1-1-1-1-|----------------|----------------|
                     no more                   time

D|---5-5-5-5-5-5-5-5-3-3-3-3-3-3-3-3-|------0-0---0-0-|------0-0---0-0-|
A|---5-5-5-5-5-5-5-5-3-3-3-3-3-3-3-3-|---9-9---4-4-4--|---9-9---4-4-4--|
E|---3-3-3-3-3-3-3-3-1-1-1-1-1-1-1-1-|----------------|----------------|
                     no more                   time

Chorus:(!=10th fret)
D|---7-7-7-7-7-7-7-7-7-7-!-!-!-!-!-!-!-!-!-!-5-5-5-5-5-5----5-5-5-5-5-5-|
A|---7-7-7-7-7-7-7-7-7-7-!-!-!-!-!-!-!-!-!-!-5-5-5-5-5-5----5-5-5-5-5-5-|
E|---5-5-5-5-5-5-5-5-5-5-8-8-8-8-8-8-8-8-8-8-3-3-3-3-3-3----3-3-3-3-3-3-|
                     if my face gives away i'm confused

D|---7-7-7-7-7-7-7-7-7-7-!-!-!-!-!-!-!-!-!-!-5-5-5-5-5-5----5-5-5-5-5-5-|
A|---7-7-7-7-7-7-7-7-7-7-!-!-!-!-!-!-!-!-!-!-5-5-5-5-5-5----5-5-5-5-5-5-|
E|---5-5-5-5-5-5-5-5-5-5-8-8-8-8-8-8-8-8-8-8-3-3-3-3-3-3----3-3-3-3-3-3-|
                     terribly sorry to say you elude

D|---7-7-7-7-7-7-7-7-7-7-!-!-!-!-!-!-!-!-!-!-5-5-5-5-5-5-5-5-5-5-3-3-3-3-3-3-3-3-3-3-|
A|---7-7-7-7-7-7-7-7-7-7-!-!-!-!-!-!-!-!-!-!-5-5-5-5-5-5-5-5-5-5-3-3-3-3-3-3-3-3-3-3-|
E|---5-5-5-5-5-5-5-5-5-5-8-8-8-8-8-8-8-8-8-8-3-3-3-3-3-3-3-3-3-3-1-1-1-1-1-1-1-1-1-1-|
       carry your sigh on your head and you paint on your frown could I love you instead

Verse2:
D|------0-0---0-0-|------0-0---0-0-|------0-0---0-0-|------0-0---0-0-|
A|---9-9---4-4-4--|---9-9---4-4-4--|---9-9---4-4-4--|---9-9---4-4-4--|

D|------0-0---0-0-|------0-0---0-0-|------0-0---0-0-|------0-0---0-0-|
A|---9-9---4-4-4--|---9-9---4-4-4--|---9-9---4-4-4--|---9-9---4-4-4--|
             i'll give you a chance if you leave one to me

D|------0-0---0-0-|------0-0---0-0-|------0-0---0-0-|------0-0---0-0-|
A|---9-9---4-4-4--|---9-9---4-4-4--|---9-9---4-4-4--|---9-9---4-4-4--|
          where do we begin, where do we begin

D|---5-5-5-5-5-5-5-5-3-3-3-3-3-3-3-3-|------0-0---0-0-|------0-0---0-0-|
A|---5-5-5-5-5-5-5-5-3-3-3-3-3-3-3-3-|---9-9---4-4-4--|---9-9---4-4-4--|
E|---3-3-3-3-3-3-3-3-1-1-1-1-1-1-1-1-|----------------|----------------|
                     no more                   time

D|---5-5-5-5-5-5-5-5-3-3-3-3-3-3-3-3-|------0-0---0-0-|------0-0---0-0-|
A|---5-5-5-5-5-5-5-5-3-3-3-3-3-3-3-3-|---9-9---4-4-4--|---9-9---4-4-4--|
E|---3-3-3-3-3-3-3-3-1-1-1-1-1-1-1-1-|----------------|----------------|
                     no more                   time

[Chorus]

Guitar Thingy:
D|------0-0--------|------0-0--------|------0-0--------|-5-5-5-5-5-5-5-5-5-5-|
A|---9-9---9/!-9-7-|---9-9---9/!-9-7-|---9-9---9/!-9-7-|-5-5-5-5-5-5-5-5-5-5-|
E|-----------------|-----------------|-----------------|-3-3-3-3-3-3-3-3-3-3-|

D|------0-0--------|------0-0--------|------0-0--------|-5-5-5-5-5-5-5-5-5-5-|
A|---9-9---9/!-9-7-|---9-9---9/!-9-7-|---9-9---9/!-9-7-|-5-5-5-5-5-5-5-5-5-5-|
E|-----------------|-----------------|-----------------|-3-3-3-3-3-3-3-3-3-3-|

Bridge:
D|------0-0---0-0-|------0-0---0-0-|------0-0---0-0-|------0-0---0-0-|
A|---9-9---4-4-4--|---9-9---4-4-4--|---9-9---4-4-4--|---9-9---4-4-4--|
             i feel lonely wouldn't you

D|------0-0---0-0-|------0-0---0-0-|------0-0---0-0-|------0-0---0-0-|
A|---9-9---4-4-4--|---9-9---4-4-4--|---9-9---4-4-4--|---9-9---4-4-4--|
             i feel lonely shouldn't you

D|---5-5-5-5-5-5-5-5-3-3-3-3-3-3-3-3-|---5-5-5-5-5-5-5-5-3-3-3-3-3-3-3-3-|
A|---5-5-5-5-5-5-5-5-3-3-3-3-3-3-3-3-|---5-5-5-5-5-5-5-5-3-3-3-3-3-3-3-3-|
E|---3-3-3-3-3-3-3-3-1-1-1-1-1-1-1-1-|---3-3-3-3-3-3-3-3-1-1-1-1-1-1-1-1-|
                     no more                   

D|---5-5-5-5-5-5-5-5-3-3-3-3-3-3-3-3-|
A|---5-5-5-5-5-5-5-5-3-3-3-3-3-3-3-3-|
E|---3-3-3-3-3-3-3-3-1-1-1-1-1-1-1-1-|
                     no more            time

Copyright 1997 5 Minute Walk Music     
Добавлено: 28.06.2013
Другие материалы по этой песне:
  • Аккорды и текст

Страница создана 25.07.2012
http://primanota.ru/rose-blossom-punch/confused-chords.htm
Привет, Гость.
Предлагаем пройти революционный курс по гитаре.
Подарок от PrimaNota.Ru, забирай!