PrimaNota.ru - самый крупный в мире бесплатный архив песенных текстов, аккордов, табулатур и нот


Rose Blossom Punch - Based On A True Story - таба, бас-таба, видео

Регистрация Запомнить меня
Войти через:  Facebook Google Twitter Vk Yandex Mail.ru

Rose Blossom Punch - Based On A True Story - таба, бас-таба, видео

Печатать
Просмотров: 79
		                               / Based on a True Story \
                           /   Rose Blossum Punch    \
                          /       TTTL Vol. III       \
                          \ ©1997 Sarabellum Records  /
                           \  Tabbed By Matt Atlas   /
                            \   MrGuitarz@aol.com   /


Intro/Verse 1:
D|--------------------------------------------------------
A|--------------------------------------------------------
e|--0-0--0-5-5--6-5-5--0-1-2----1-1--2-3-3--7-6-6--0-1-2--


Chorus 1:
D|--9-9-9-9-9-9-9-9-7-7-7-7-7-7-7-7-9-9-9-9-9-9-9-9-7-7-7-7-7-7-7-7--
A|--9-9-9-9-9-9-9-9-7-7-7-7-7-7-7-7-9-9-9-9-9-9-9-9-7-7-7-7-7-7-7-7--
e|--7-7-7-7-7-7-7-7-5-5-5-5-5-5-5-5-7-7-7-7-7-7-7-7-5-5-5-5-5-5-5-5--


D|--3-3-3-3-3-3-3-3-5-5-5-5-5-5-5-5--
A|--3-3-3-3-3-3-3-3-5-5-5-5-5-5-5-5--
e|--1-1-1-1-1-1-1-1-3-3-3-3-3-3-3-3--


Verse 2:
D|--------------------------------------------------------
A|--------------------------------------------------------
e|--0-0--0-5-5--6-5-5--0-1-2----1-1--2-3-3--7-6-6--0-1-2--


Chorus 2:
D|--9-9-9-9-9-9-9-9-7-7-7-7-7-7-7-7-9-9-9-9-9-9-9-9-7-7-7-7-7-7-7-7--
A|--9-9-9-9-9-9-9-9-7-7-7-7-7-7-7-7-9-9-9-9-9-9-9-9-7-7-7-7-7-7-7-7--
e|--7-7-7-7-7-7-7-7-5-5-5-5-5-5-5-5-7-7-7-7-7-7-7-7-5-5-5-5-5-5-5-5--


D|--3-3-3-3-3-3-3-3-5-5-5-5-5-5-5-5--
A|--3-3-3-3-3-3-3-3-5-5-5-5-5-5-5-5--
e|--1-1-1-1-1-1-1-1-3-3-3-3-3-3-3-3--


D|--5-5---------7-7---------6-6-6--------5-5---------7-7---------3-3-3--
A|--5-5---------7-7---------6-6-6--------5-5---------7-7---------3-3-3--
e|--3-3---------5-5---------4-4-4--------3-3---------5-5---------1-1-1--


As in all the songs I tab out, this may be completely off, but it'll give you
something to work with, and please update it as you see fit.  I figure
something is better than nothing, so enjoy this!


-matt     
Добавлено: 11.08.2013
Другие материалы по этой песне:
  • Аккорды и текст

Страница создана 26.06.2012
http://primanota.ru/rose-blossom-punch/based-on-a-true-story-chords.htm
Привет, Гость.
Предлагаем пройти революционный курс по гитаре.
Подарок от PrimaNota.Ru, забирай!