PrimaNota.ru - самый крупный в мире бесплатный архив песенных текстов, аккордов, табулатур и нот


Rosario Alfonso - Pasito Despacito - таба, видео

Регистрация Запомнить меня
Войти через:  Facebook Google Twitter Vk Yandex Mail.ru

Rosario Alfonso - Pasito Despacito - таба, видео

Печатать
Просмотров: 449
Уроки эстрадного вокала в Санкт-Петербурге
Rosario Alfonso - Pasito despacito
The song is available free for listening here: http://uvarobot.cl/track/pasito-despacito


Standard Tuning both Rythm and Lead guitars (EADGBe)


Rythm guitar: Repeat the following through all the song

e --------------------------------------------------------------|
B ------3-----3-----3-----3-----3------3-----3-----3------------|
G ----0-----0-----0-----0-----0------0-----0-----0--------------|
D --------0-----0-----0------------2-----2-----2------2-0-------|
A --2-----------------------0-----------------------------------|
E --------------------------------------------------------------|

Lead guitar

0:55 (just after the D --2-0-- part)

e ---7-----------7/9--7-----------------------------------------|
B -----7-8-10-8-------------------------------------------------|
G --------------------------------------------------------------|
D --------------------------------------------------------------|
A --------------------------------------------------------------|
E --------------------------------------------------------------|

1:00 (same but with one more note at the end)

e ---7-----------7/9--7-----------------------------------------|
B -----7-8-10-8---------8---------------------------------------|
G --------------------------------------------------------------|
D --------------------------------------------------------------|
A --------------------------------------------------------------|
E --------------------------------------------------------------|


At 1:49 the same as 0:55
At 1:54 the same as 1:00 but it ends with a sutile 8p7 instead of 8.

At 2:00 the same as 0:55
At 2:05 the same as 1:54

At 2:12 repeat that pull:

e --------------------------------------------------------------|
B ------8p7-----------------------------------------------------|
G --------------------------------------------------------------|
D --------------------------------------------------------------|
A --------------------------------------------------------------|
E --------------------------------------------------------------|


Lyrics:

Caminando voy
Donde tú vayas

Caminando voy
Donde tú vayas

2x:
Un pasito despacito voy para el frente
Un pasito despacito voy para allá

  (Lead guitar)

Caminando voy
Donde tú vayas

Caminando voy
Donde tú vayas

Hacia donde voy (hacia donde voy), ¿acaso importa?
Hacia donde voy (hacia donde voy), ¿acaso importa?

2x:
Un pasito despacito voy para el frente
Un pasito despacito voy para allá.
Добавлено: 11.07.2015
Другие материалы по этой песне:
  • Аккорды и текст

Страница создана 11.07.2015
http://primanota.ru/rosario-alfonso/pasito-despacito-chords.htm
Привет, Гость.
Предлагаем пройти революционный курс по гитаре.
Подарок от PrimaNota.Ru, забирай!