PrimaNota.ru - самый крупный в мире бесплатный архив песенных текстов, аккордов, табулатур и нот


Ros Sereysothea - Chnam Oun 16 - таба, видео

Регистрация Запомнить меня
Войти через:  Facebook Google Twitter Vk Yandex Mail.ru

Ros Sereysothea - Chnam Oun 16 - таба, видео

Печатать
Просмотров: 87
Уроки эстрадного вокала в Санкт-Петербурге
---------------------------------------------------------------------------------------------------------------
                                          Artist - Ros Sereysothea
                                         **************************
                                            Song - Chnam Oun 16
                                           *********************
                                            Tabbed By - Ayreon77
                                           **********************
---------------------------------------------------------------------------------------------------------------
Tuning = Standard



SOLO 1
*******                hold
                      bend
00:10               b  |
e|------b-|--rb----14-14--12-15----15-|-12--rb------|-----------------|-------------------|
B|-12--15-|-15--12--------------14----|----15-12----|--brp------------|---p---------------|
G|--------|---------------------------|----------14-|-14--12----12-12-|-14-12----12-14-12-|
D|--------|---------------------------|-------------|--------14-------|-------14----------|
A|--------|---------------------------|-------------|-----------------|-------------------|
E|--------|---------------------------|-------------|-----------------|-------------------|

00:20                               s                       p          p          p          p
e|----12-------------15-|--rb-----17\19-18-19-19-19-----|-15-12----|-15-12----|-15-12----|-15-12----|
B|--b-----rb------------|-15--12---------------------12-|-------14-|-------14-|-------14-|-------14-|
G|-14----14-12----12----|-------------------------------|----------|----------|----------|----------|
D|-------------14-------|-------------------------------|----------|----------|----------|----------|
A|----------------------|-------------------------------|----------|----------|----------|----------|
E|----------------------|-------------------------------|----------|----------|----------|----------|
 
     p          p
e|-15-12----|-15-12----12-|--br------------------|-------------------------|
B|-------14-|-------14----|-15-12---p------------|---p---------------------|
G|----------|-------------|-------14-12----12-12-|-14-12----12------h------|
D|----------|-------------|-------------14-------|-------14----14-12-14-14-|
A|----------|-------------|----------------------|-------------------------|
E|----------|-------------|----------------------|-------------------------|


e|------------------------------------------------|
B|------------------s--------s--------------------|
G|---------s---12-14\16-16-16\14-12-------------s-|
D|---h---12\14----------------------14-12-14--14\-|
A|-12-14------------------------------------------|
E|------------------------------------------------|



-----------------------
01:17
SOLO 2
*******
e|----------------------------------|------------------------------|--------------------------|
B|---------------------------p------|---p------p---------p---------|---p--------------s-------|
G|-------------s---12---14-14-12----|-14-12--14-12-----14-12----12-|-14-12----12-14-14\16--16-|
D|---s---12--12\14---------------14-|--------------14--------14----|-------14-----------------|
A|-12\14----------------------------|------------------------------|--------------------------|
E|----------------------------------|------------------------------|--------------------------|
                                                                       hold
01:24                                                                  bend
            b    br       s               b   b       rb            b  |  |
e|--br-----14---14-10-|-17\19-19-19---19-22--22-19-|-17-15------15-15-15-15----15-|
B|-15--12-------------|----------------------------|-------(17)-------------12----|
G|--------------------|----------------------------|------------------------------|
D|--------------------|----------------------------|------------------------------|
A|--------------------|----------------------------|------------------------------|
E|--------------------|----------------------------|------------------------------|
                                                                        faster..................
01:33   p             p             p             p             p            p           p
e|----15-12----|----15-12----|----15-12----|----15-12----|----15-12----|---15-12---|---15-12---|
B|-12-------14-|-12-------14-|-12-------14-|-12-------14-|-12-------14-|-12-----14-|-12-----14-|
G|-------------|-------------|-------------|-------------|-------------|-----------|-----------|
D|-------------|-------------|-------------|-------------|-------------|-----------|-----------|
A|-------------|-------------|-------------|-------------|-------------|-----------|-----------|
E|-------------|-------------|-------------|-------------|-------------|-----------|-----------|

01:36
e|--------------------------[??????????????????????????]--|------------------------------------------------|
B|-------------p--------------b--b--rb-rb-rb-rb-rb-rb---s-|------------------------b--b--------------------|
G|---s---12--14-12----12--12-12-12--12-12-12-12-12-12-12\-|---------s---12--14-12-14-14--14-12-----------s-|
D|-12\14-----------14-------------------------------------|---h---12\14------------------------14-12-14--\-|
A|--------------------------------------------------------|-12-14------------------------------------------|
E|--------------------------------------------------------|------------------------------------------------|



-----------------------
02:27
SOLO 3
*******
e|--------------------|-------------|---------------------------------|--------------------------------------|
B|--------------------|---p---------|---p----------------brb--rb------|---------------------b--b--b--b--b--b-|
G|-------------s---12-|-14-12----12-|-14-12----12-14-12-14---14-12----|------------s---12--14-14-14-14-14-14-|
D|---s---12--12\14----|-------14----|-------14---------------------14-|-14-12----12\14-----------------------|
A|-12\14--------------|-------------|---------------------------------|-------14-----------------------------|
E|--------------------|-------------|---------------------------------|--------------------------------------|

02:37     b  b  rb       s               b  br     br       br  b  b  br
e|--rb---14-14-14-12-|-17\19-19-19-|-19-21--21-19--21-19-|-17--15-15-15----|
B|-15-12-------------|-------------|---------------------|--------------12-|
G|-------------------|-------------|---------------------|-----------------|
D|-------------------|-------------|---------------------|-----------------|
A|-------------------|-------------|---------------------|-----------------|
E|-------------------|-------------|---------------------|-----------------|

02:45
     p          p          p          p          p
e|-15-12----|-15-12----|-15-12----|-15-12----|-15-12---|-15--br--------------|-[??????????????????????????]----|
B|-------14-|-------14-|-------14-|-------14-|-------14|----15---br----------|--b--b--b--rb-rb-rb-rb-rb-rb---s-|
G|----------|----------|----------|----------|---------|--------14--12----12-|-12-12-12--12-12-12-12-12-12-12\-|
D|----------|----------|----------|----------|---------|---------------14----|---------------------------------|
A|----------|----------|----------|----------|---------|---------------------|---------------------------------|
E|----------|----------|----------|----------|---------|---------------------|---------------------------------|

02:54
e|------------------------------------------------|
B|-----------------------b--b---------------------|
G|---------h---12-14-12-14-14-14-12---------s---s-|
D|---h---12-14----------------------14-12-12\14-\-|
A|-12-14------------------------------------------|
E|------------------------------------------------|



ENJOY............
Добавлено: 12.12.2015
Другие материалы по этой песне:
  • Аккорды и текст

Страница создана 12.12.2015
http://primanota.ru/ros-sereysothea/chnam-oun-16-chords.htm
Привет, Гость.
Предлагаем пройти революционный курс по гитаре.
Подарок от PrimaNota.Ru, забирай!