PrimaNota.ru - самый крупный в мире бесплатный архив песенных текстов, аккордов, табулатур и нот


Rory Indiana - Empiricism - таба, видео

Регистрация Запомнить меня
Войти через:  Facebook Google Twitter Vk Yandex Mail.ru

Rory Indiana - Empiricism - таба, видео

Печатать
Просмотров: 101
Song: Empiricism
Artist: Rory Indiana

Intro:
E|-----------------------------------------------------------------|
B|-----------------------------------------------------------------|
G|-----------------------------------------------------------------|
D|--4---------------------1-1-1-1----2-----------------------------|
A|--------------------------------------0--2---0-------------------|
E|-----2--3p0--3p0--0--0---------------------3---0--0--0--3-3-3-3--|

Verse:
E|-------------------------------------------|
B|-------------------------------------------|
G|-------------------------------------------|
D|--2--2---1b----------------------------1b--|
A|-------------3--3---2b--0--0---------------|
E|------------------------------3b-0--0------|

Chorus:
E|------------------------------------------------------------------------|
B|------------------------------------------------------------------------|
G|--9--9--------------5--5------8--8----9--9--------------5--5---3b-8--8--|
D|--9--9----5--5------5--5------8--8----9--9----5--5------5--5------8--8--|
A|--7--7----5--5------3--3------6--6----7--7----5--5------3--3------6--6--|
E|----------3--3---3b--------1b-----------------3--3---3b-----------------|

Verse Ending (see the structure at the bottom for when this is used):
E|------------------------------------|
B|------------------------------------|
G|------------------------------------|
D|--2--2---1b-------------------------|
A|-------------3--3---2b--0--0--------|
E|------------------------------3b-0--|

Breakdown (Muted Part):
E|---------------------------------------------------------------|
B|---------------------------------------------------------------|
G|-----------------------------4-4-4-------------------------3b--|
D|-2-2-2-------1-1-1-----------------5-5-5-7-7-7-4-4-4-4-4-4-----|
A|---------------------------0-----------------------------------|
E|-------0-0-0-------0-0-0-3-------------------------------------|

Breakdown (Unmuted Part):
E|--------------------------------------------------------------|
B|-5-5-5-------4-4-4--------------------------------------------|
G|--------------------------------------------------------------|
D|--------------------------------------------------------------|
A|---------------------------0-2-2-2-------0-0-0----------------|
E|-------0-0-0-------0-0-0-3---------3-3-3-------2-2-2-2-2-2-2--|


Post-Breakdown:
E|-------------------------|
B|-------------------------|
G|-------------------------|
D|-------------------------|
A|-------------------------|
E|--0h3--3--3p0h3--3--3p0--|

Ending:
E|--------------------------------|
B|--------------------------------|
G|--------------------------------|
D|-2-2-2-------1-1-1-----------2--|
A|---------------------------0----|
E|-------0-0-0-------0-0-0-3------|


Song Structure:
Intro (x2), Verse (x4), Chorus (x2), Verse(x6) (two post-chorus and four as verses),
Chorus (x4), Verse (x1), Verse Ending (x1), Breakdown (Muted Part) (x1),
Breakdown (Unmuted Part) (x2), Post-Breakdown (x2), Verse (x1), Verse Ending (x1),
Ending (x1)
Добавлено: 31.07.2015
Другие материалы по этой песне:
  • Аккорды и текст

Страница создана 31.07.2015
http://primanota.ru/rory-indiana/empiricism-chords.htm
Привет, Гость.
Предлагаем пройти революционный курс по гитаре.
Подарок от PrimaNota.Ru, забирай!