PrimaNota.ru - самый крупный в мире бесплатный архив песенных текстов, аккордов, табулатур и нот


Roper - Vendetta! - текст песни, таба, видео

Регистрация Запомнить меня
Войти через:  Facebook Google Twitter Vk Yandex Mail.ru

Roper - Vendetta! - текст песни, таба, видео

Печатать
Просмотров: 59
This tab is from higherpraise.com:

Note: These chords aren't all perfect. I just came as close as I could with
simple power-chords.
 

Intro:
E|-------------------------------------------------------------------|
B|-------------------------------------------------------------------|
G|-------------------------------------------------------------------|
D|14-14-13-14-14---14-14-13-14-14--9-7-7-7-7-7-7-7-7-7-7-7-7-7-7-7-7-|
A|14-14-13-14-14---14-14-13-14-14--9-7-7-7-7-7-7-7-7-7-7-7-7-7-7-7-7-|
D|14-14-13-14-14---14-14-13-14-14--9-7-7-7-7-7-7-7-7-7-7-7-7-7-7-7-7-|

-------------------------------------------------------------------|
-------------------------------------------------------------------|
-------------------------------------------------------------------|
14-14-13-14-14---14-14-13-14-14--9-7-7-7-7-7-7-7-7-7-7-7-7-7-7-7-7-|
14-14-13-14-14---14-14-13-14-14--9-7-7-7-7-7-7-7-7-7-7-7-7-7-7-7-7-|
14-14-13-14-14---14-14-13-14-14--9-7-7-7-7-7-7-7-7-7-7-7-7-7-7-7-7-|


Verse:
--------------------------------------------------------------------|
--------------------------------------------------------------------|
--------------------------------------------------------------------|
14-14-14-14-14-14-14-14-14-14-14-14-7-7-7-7-7-7-7-7-7-7-7-7-7-7-7-7-|
14-14-14-14-14-14-14-14-14-14-14-14-7-7-7-7-7-7-7-7-7-7-7-7-7-7-7-7-|
14-14-14-14-14-14-14-14-14-14-14-14-7-7-7-7-7-7-7-7-7-7-7-7-7-7-7-7-|

--------------------------------------------------------------------|
--------------------------------------------------------------------|
--------------------------------------------------------------------|
14-14-14-14-14-14-14-14-14-14-14-14-7-7-7-7-7-7-7-7-7-7-7-7-7-7-7-7-|
14-14-14-14-14-14-14-14-14-14-14-14-7-7-7-7-7-7-7-7-7-7-7-7-7-7-7-7-|
14-14-14-14-14-14-14-14-14-14-14-14-7-7-7-7-7-7-7-7-7-7-7-7-7-7-7-7-|

------------------------------------------------------------------------|
------------------------------------------------------------------------|
------------------------------------------------------------------------|
9-9-9-9-9-9-9-9-14-14-14-14-14-14-14-14-7-7-7-7-7-7-7-7-7-7-7-7-7-7-7-7-|
9-9-9-9-9-9-9-9-14-14-14-14-14-14-14-14-7-7-7-7-7-7-7-7-7-7-7-7-7-7-7-7-|
9-9-9-9-9-9-9-9-14-14-14-14-14-14-14-14-7-7-7-7-7-7-7-7-7-7-7-7-7-7-7-7-|

------------------------------------------------------------------------|
------------------------------------------------------------------------|
------------------------------------------------------------------------|
9-9-9-9-9-9-9-9-14-14-14-14-14-14-14-14-7-7-7-7-7-7-7-7-7-7-7-7-7-7-7-7-|
9-9-9-9-9-9-9-9-14-14-14-14-14-14-14-14-7-7-7-7-7-7-7-7-7-7-7-7-7-7-7-7-|
9-9-9-9-9-9-9-9-14-14-14-14-14-14-14-14-7-7-7-7-7-7-7-7-7-7-7-7-7-7-7-7-|

--------------------------------|
--------------------------------|
--------------------------------|
7-7-7-7-7-7-7-7-7-7-7-7-7-7-7-7-|
7-7-7-7-7-7-7-7-7-7-7-7-7-7-7-7-|
7-7-7-7-7-7-7-7-7-7-7-7-7-7-7-7-|


Pre-Chorus:
----------------------------------------------------------------|
----------------------------------------------------------------|
----------------------------------------------------------------|
2-2-2-2-2-2-2-2-2-2-2-2-2-2-2-2-9-9-9-9-9-9-9-9-9-9-9-9-9-9-9-9-|
2-2-2-2-2-2-2-2-2-2-2-2-2-2-2-2-9-9-9-9-9-9-9-9-9-9-9-9-9-9-9-9-|
2-2-2-2-2-2-2-2-2-2-2-2-2-2-2-2-9-9-9-9-9-9-9-9-9-9-9-9-9-9-9-9-|

----------------------------------------------------------------|
----------------------------------------------------------------|
----------------------------------------------------------------|
2-2-2-2-2-2-2-2-2-2-2-2-2-2-2-2-7-7-7-7-7-7-7-7-7-7-7-7-7-7-7-7-|
2-2-2-2-2-2-2-2-2-2-2-2-2-2-2-2-7-7-7-7-7-7-7-7-7-7-7-7-7-7-7-7-|
2-2-2-2-2-2-2-2-2-2-2-2-2-2-2-2-7-7-7-7-7-7-7-7-7-7-7-7-7-7-7-7-|

-------------------------------------------------------------------|
-------------------------------------------------------------------|
-------------------------------------------------------------------|
14-14-13-14-14---14-14-13-14-14--9-7-7-7-7-7-7-7-7-7-7-7-7-7-7-7-7-|
14-14-13-14-14---14-14-13-14-14--9-7-7-7-7-7-7-7-7-7-7-7-7-7-7-7-7-|
14-14-13-14-14---14-14-13-14-14--9-7-7-7-7-7-7-7-7-7-7-7-7-7-7-7-7-|

-------------------------------------------------------------------|
-------------------------------------------------------------------|
-------------------------------------------------------------------|
-------------------------------------------------------------------|
14-14-13-14-14---14-14-13-14-14--9-7-7-7-7-7-7-7-7-7-7-7-7-7-7-7-7-|
14-14-13-14-14---14-14-13-14-14--9-7-7-7-7-7-7-7-7-7-7-7-7-7-7-7-7-|
14-14-13-14-14---14-14-13-14-14--9-7-7-7-7-7-7-7-7-7-7-7-7-7-7-7-7-|


--------------------------------------------------------------------|
--------------------------------------------------------------------|
---x--x--x--x--x--x--x--x--x--x--x----x-x-x-x-x-x-x-x-x-x-x-x-x-x-x-|
14-14-14-14-14-14-14-14-14-14-14-14-7-7-7-7-7-7-7-7-7-7-7-7-7-7-7-7-|
14-14-14-14-14-14-14-14-14-14-14-14-7-7-7-7-7-7-7-7-7-7-7-7-7-7-7-7-|
14-14-14-14-14-14-14-14-14-14-14-14-7-7-7-7-7-7-7-7-7-7-7-7-7-7-7-7-|


--------------------------------------------------------------------|
--------------------------------------------------------------------|
---x--x--x--x--x--x--x--x--x--x--x----x-x-x-x-x-x-x-x-x-x-x-x-x-x-x-|
14-14-14-14-14-14-14-14-14-14-14-14-7-7-7-7-7-7-7-7-7-7-7-7-7-7-7-7-|
14-14-14-14-14-14-14-14-14-14-14-14-7-7-7-7-7-7-7-7-7-7-7-7-7-7-7-7-|
14-14-14-14-14-14-14-14-14-14-14-14-7-7-7-7-7-7-7-7-7-7-7-7-7-7-7-7-|

--------------------------------------------------------------------|
--------------------------------------------------------------------|
--------------------------------------------------------------------|
14-14-14-14-14-14-14-14-14-14-14-14-7-7-7-7-7-7-7-7-7-7-7-7-7-7-7-7-|
14-14-14-14-14-14-14-14-14-14-14-14-7-7-7-7-7-7-7-7-7-7-7-7-7-7-7-7-|
14-14-14-14-14-14-14-14-14-14-14-14-7-7-7-7-7-7-7-7-7-7-7-7-7-7-7-7-|

--------------------------------------------------------------------|
--------------------------------------------------------------------|
--------------------------------------------------------------------|
14-14-14-14-14-14-14-14-14-14-14-14-7-7-7-7-7-7-7-7-7-7-7-7-7-7-7-7-|
14-14-14-14-14-14-14-14-14-14-14-14-7-7-7-7-7-7-7-7-7-7-7-7-7-7-7-7-|
14-14-14-14-14-14-14-14-14-14-14-14-7-7-7-7-7-7-7-7-7-7-7-7-7-7-7-7-|

------------------------------------------------------------------------|
------------------------------------------------------------------------|
------------------------------------------------------------------------|
9-9-9-9-9-9-9-9-14-14-14-14-14-14-14-14-7-7-7-7-7-7-7-7-7-7-7-7-7-7-7-7-|
9-9-9-9-9-9-9-9-14-14-14-14-14-14-14-14-7-7-7-7-7-7-7-7-7-7-7-7-7-7-7-7-|
9-9-9-9-9-9-9-9-14-14-14-14-14-14-14-14-7-7-7-7-7-7-7-7-7-7-7-7-7-7-7-7-|

------------------------------------------------------------------------|
------------------------------------------------------------------------|
------------------------------------------------------------------------|
9-9-9-9-9-9-9-9-14-14-14-14-14-14-14-14-7-7-7-7-7-7-7-7-7-7-7-7-7-7-7-7-|
9-9-9-9-9-9-9-9-14-14-14-14-14-14-14-14-7-7-7-7-7-7-7-7-7-7-7-7-7-7-7-7-|
9-9-9-9-9-9-9-9-14-14-14-14-14-14-14-14-7-7-7-7-7-7-7-7-7-7-7-7-7-7-7-7-|

------------------------------------------------------------------------|
------------------------------------------------------------------------|
------------------------------------------------------------------------|
9-9-9-9-9-9-9-9-14-14-14-14-14-14-14-14-7-7-7-7-7-7-7-7-7-7-7-7-7-7-7-7-|
9-9-9-9-9-9-9-9-14-14-14-14-14-14-14-14-7-7-7-7-7-7-7-7-7-7-7-7-7-7-7-7-|
9-9-9-9-9-9-9-9-14-14-14-14-14-14-14-14-7-7-7-7-7-7-7-7-7-7-7-7-7-7-7-7-|

--------------------------------|
--------------------------------|
----------------6-------9-------|
7-7-7-7-7-7-7-7-7-7-7-7-7-7-7-7-|
7-7-7-7-7-7-7-7-7-7-7-7-7-7-7-7-|
7-7-7-7-7-7-7-7-7-7-7-7-7-7-7-7-|


Pre-Chorus:
----------------------------------------------------------------|
----------------------------------------------------------------|
----------------------------------------------------------------|
2-2-2-2-2-2-2-2-2-2-2-2-2-2-2-2-9-9-9-9-9-9-9-9-9-9-9-9-9-9-9-9-|
2-2-2-2-2-2-2-2-2-2-2-2-2-2-2-2-9-9-9-9-9-9-9-9-9-9-9-9-9-9-9-9-|
2-2-2-2-2-2-2-2-2-2-2-2-2-2-2-2-9-9-9-9-9-9-9-9-9-9-9-9-9-9-9-9-|

----------------------------------------------------------------|
----------------------------------------------------------------|
----------------------------------------------------------------|
2-2-2-2-2-2-2-2-2-2-2-2-2-2-2-2-7-7-7-7-7-7-7-7-7-7-7-7-7-7-7-7-|
2-2-2-2-2-2-2-2-2-2-2-2-2-2-2-2-7-7-7-7-7-7-7-7-7-7-7-7-7-7-7-7-|
2-2-2-2-2-2-2-2-2-2-2-2-2-2-2-2-7-7-7-7-7-7-7-7-7-7-7-7-7-7-7-7-|

----------------------------------------------------------------|
----------------------------------------------------------------|
----------------------------------------------------------------|
2-2-2-2-2-2-2-2-2-2-2-2-2-2-2-2-9-9-9-9-9-9-9-9-9-9-9-9-9-9-9-9-|
2-2-2-2-2-2-2-2-2-2-2-2-2-2-2-2-9-9-9-9-9-9-9-9-9-9-9-9-9-9-9-9-|
2-2-2-2-2-2-2-2-2-2-2-2-2-2-2-2-9-9-9-9-9-9-9-9-9-9-9-9-9-9-9-9-|

----------------------------------------------------------------|
----------------------------------------------------------------|
----------------------------------------------------------------|
2-2-2-2-2-2-2-2-2-2-2-2-2-2-2-2-7-7-7-7-7-7-7-7-7-7-7-7-7-7-7-7-|
2-2-2-2-2-2-2-2-2-2-2-2-2-2-2-2-7-7-7-7-7-7-7-7-7-7-7-7-7-7-7-7-|
2-2-2-2-2-2-2-2-2-2-2-2-2-2-2-2-7-7-7-7-7-7-7-7-7-7-7-7-7-7-7-7-|


Bridge:
--------------------------------------------------------------|
--------------------------------------------------------------|
---x-x-x-x-x-x-x-x-x-x-x-x-x-x----x-x-x-x-x-x-x-x-x-x-x-x-x-x-|
2--2-2-2-2-2-2-2-2-2-2-2-2-2-2-2--2-2-2-2-2-2-2-2-2-2-2-2-2-2-|
2--2-2-2-2-2-2-2-2-2-2-2-2-2-2-2--2-2-2-2-2-2-2-2-2-2-2-2-2-2-|
2--2-2-2-2-2-2-2-2-2-2-2-2-2-2-2--2-2-2-2-2-2-2-2-2-2-2-2-2-2-|

------------------------------------------------|
------------------------------------------------|
------------------------------------------------|
2--2-2-2-2--2--2-2-2-0--2--2-2-2----2--2-2-2----|
2--2-2-2----2--2-2-2----2--2-2-2-4--2--2-2-2-3--|
2--2-2-2----2--2-2-2----2--2-2-2----2--2-2-2----|

------------------------------------------------|
------------------------------------------------|
------------------------------------------------|
2--2-2-2-2--2--2-2-2-0--2--2-2-2----2--2-2-2----|
2--2-2-2----2--2-2-2----2--2-2-2-4--2--2-2-2-3--|
2--2-2-2----2--2-2-2----2--2-2-2----2--2-2-2----|

(Solo plays here, I'll try to tab it later)
------------------------------------------------|
------------------------------------------------|
------------------------------------------------|
2--2-2-2-2--2--2-2-2-0--2--2-2-2----2--2-2-2----|
2--2-2-2----2--2-2-2----2--2-2-2-4--2--2-2-2-3--|
2--2-2-2----2--2-2-2----2--2-2-2----2--2-2-2----|

------------------------------------------------|
------------------------------------------------|
------------------------------------------------|
2--2-2-2-2--2--2-2-2-0--2--2-2-2----2--2-2-2----|
2--2-2-2----2--2-2-2----2--2-2-2-4--2--2-2-2-3--|
2--2-2-2----2--2-2-2----2--2-2-2----2--2-2-2----|

Pre-Chorus:
----------------------------------------------------------------|
----------------------------------------------------------------|
----------------------------------------------------------------|
2-2-2-2-2-2-2-2-2-2-2-2-2-2-2-2-7-7-7-7-7-7-7-7-7-7-7-7-7-7-7-7-|
2-2-2-2-2-2-2-2-2-2-2-2-2-2-2-2-7-7-7-7-7-7-7-7-7-7-7-7-7-7-7-7-|
2-2-2-2-2-2-2-2-2-2-2-2-2-2-2-2-7-7-7-7-7-7-7-7-7-7-7-7-7-7-7-7-|

----------------------------------------------------------------|
----------------------------------------------------------------|
----------------------------------------------------------------|
2-2-2-2-2-2-2-2-2-2-2-2-2-2-2-2-7-7-7-7-7-7-7-7-7-7-7-7-7-7-7-7-|
2-2-2-2-2-2-2-2-2-2-2-2-2-2-2-2-7-7-7-7-7-7-7-7-7-7-7-7-7-7-7-7-|
2-2-2-2-2-2-2-2-2-2-2-2-2-2-2-2-7-7-7-7-7-7-7-7-7-7-7-7-7-7-7-7-|

----------------------------------------------------------------|
----------------------------------------------------------------|
----------------------------------------------------------------|
2-2-2-2-2-2-2-2-2-2-2-2-2-2-2-2-7-7-7-7-7-7-7-7-7-7-7-7-7-7-7-7-|
2-2-2-2-2-2-2-2-2-2-2-2-2-2-2-2-7-7-7-7-7-7-7-7-7-7-7-7-7-7-7-7-|
2-2-2-2-2-2-2-2-2-2-2-2-2-2-2-2-7-7-7-7-7-7-7-7-7-7-7-7-7-7-7-7-|

----------------------------------------------------------------|
----------------------------------------------------------------|
----------------------------------------------------------------|
2-2-2-2-2-2-2-2-2-2-2-2-2-2-2-2-7-7-7-7-7-7-7-7-7-7-7-7-7-7-7-7-|
2-2-2-2-2-2-2-2-2-2-2-2-2-2-2-2-7-7-7-7-7-7-7-7-7-7-7-7-7-7-7-7-|
2-2-2-2-2-2-2-2-2-2-2-2-2-2-2-2-7-7-7-7-7-7-7-7-7-7-7-7-7-7-7-7-|

Chorus:
-------------------------------------------------------------------|
-------------------------------------------------------------------|
-------------------------------------------------------------------|
14-14-13-14-14---14-14-13-14-14--9-7-7-7-7-7-7-7-7-7-7-7-7-7-7-7-7-|
14-14-13-14-14---14-14-13-14-14--9-7-7-7-7-7-7-7-7-7-7-7-7-7-7-7-7-|
14-14-13-14-14---14-14-13-14-14--9-7-7-7-7-7-7-7-7-7-7-7-7-7-7-7-7-|

-------------------------------------------------------------------|
-------------------------------------------------------------------|
-------------------------------------------------------------------|
14-14-13-14-14---14-14-13-14-14--9-7-7-7-7-7-7-7-7-7-7-7-7-7-7-7-7-|
14-14-13-14-14---14-14-13-14-14--9-7-7-7-7-7-7-7-7-7-7-7-7-7-7-7-7-|
14-14-13-14-14---14-14-13-14-14--9-7-7-7-7-7-7-7-7-7-7-7-7-7-7-7-7-|

The song ends with a nice riff that resembles the bridge/solo. I'll tab
it if I tab the solo.

Please comment/rate--God bless!

-Romans 10:9-10;13
Добавлено: 18.07.2015
Другие материалы по этой песне:
  • Аккорды и текст

Страница создана 11.07.2012
http://primanota.ru/roper/vendetta-chords.htm
Привет, Гость.
Предлагаем пройти революционный курс по гитаре.
Подарок от PrimaNota.Ru, забирай!