PrimaNota.ru - самый крупный в мире бесплатный архив песенных текстов, аккордов, табулатур и нот


Roper - Hello Lamewads - аккорды и текст, видео

Регистрация Запомнить меня
Войти через:  Facebook Google Twitter Vk Yandex Mail.ru

Roper - Hello Lamewads - аккорды и текст, видео

Печатать
Просмотров: 53
Hello Lamewads
Roper
This tab is from higherpraise.com:

Chorus(song starts out with the Chorus)


e--------------------------|
b--------------------------|
g------10------------------|
d--10--10--7--5------------|
a--10--8---7--5------------|
E--8-------5--3------------|

The verse has some muted rhythm action, listen to the song and it will make sense
Also it has two sections.  Section 1 and Section 2.  We wont mention Section Z
lest your brain overheat.

Verse Section 1

e-----------------------------------------|
b-----------------------------------------|
g-------10---9-10-------------------------|
d--10---10---9-10-7---7-5-3--5------------|
a--10---8----7-8--7---7-5-3--5------------|
E--8--------------5---5-3-1--3------------|

Verse the second
Im a little sketchy on the single high notes on the second section
but i am sure of the power chords.

e---------15-15-15-15-----18-18-18-18----20-20-20-20---|
b------------------------------------------------------|
g------------------------------------------------------|
d---101010------------555------------333-------------5-|
a---101010------------555------------333-------------5-|
E---8-8-8-------------333------------111-------------3-|

then its back to the chorus and the two parts of the verse.
bridge is same as chorus, and chorus one more time

Please comment/rate--God bless!

-Romans 10:9-10;13
Добавлено: 18.07.2015
Другие материалы по этой песне:
  • Аккорды и текст

Страница создана 09.05.2012
http://primanota.ru/roper/hello-lamewads-chords.htm
Привет, Гость.
Предлагаем пройти революционный курс по гитаре.
Подарок от PrimaNota.Ru, забирай!