PrimaNota.ru - самый крупный в мире бесплатный архив песенных текстов, аккордов, табулатур и нот


Root George - Battle Cry Of Freedom - таба, видео

Регистрация Запомнить меня
Войти через:  Facebook Google Twitter Vk Yandex Mail.ru

Root George - Battle Cry Of Freedom - таба, видео

Печатать
Просмотров: 130
Battle Cry of Freedom

By - George F Root

Tabbed by - Sam Horrocks

(listened to the version off the Ken Burns civil war disk,

came up with this)

 

E|--------------------------------------------

B|--------0--0--0-----------------------------

G|--0--2--0--------2--0----------0--0--0------

D|--------------------2----2--4--2--------4--2

A|-------------------------------------------3

E|--------------------------------------------

 

E|-------------------------------|

B|---------------------------0---|

G|---------------------0--2--0--2|

D|--0----0----------0-----------0|

A|--2-------3----2---------------|

E|---------------3---------------|

 

E|--------------------------------------------

B|--------0--0--0-----------------------------

G|--0--2--0--------2--0----------0--0--0------

D|--------------------2----2--4--2--------4--2

A|-------------------------------------------3

E|--------------------------------------------

 

E|-----------------------------------|

B|----------------------0------------|

G|-------------------0-----2--------0|

D|--0----0--------0--------0---------|

A|--2-------3--2---------------------|

E|-------------3--------------------3|

 

E|--------------0------------------

B|--3----0--1-3------3--3----0--1-3

G|--0-------------------0----------

D|--------------------------------0

A|---------------------------------

E|---------------------------------

 

E|--------------0------------------|

B|--3----0--1-3------3--3----0-----|

G|--0---------------------------0-2|

D|----------------------0---------0|

A|---------------------------------|

E|---------------------------------|

 

 

E|--------------------------------------------

B|--------0--0--0-----------------------------

G|--0--2--0--------2--0----------0--0--0------

D|--------------------2----2--4--2--------4--2

A|-------------------------------------------3

E|--------------------------------------------

 

E|-----------------------------------||

B|----------------------0------------||

G|-------------------0-----2--------0||

D|--0----0--------0--------0---------||

A|--2-------3--2---------------------||

E|-------------3--------------------3||
     
Добавлено: 20.11.2013
Другие материалы по этой песне:
  • Аккорды и текст

Страница создана 20.11.2013
http://primanota.ru/root-george/battle-cry-of-freedom-chords.htm
Привет, Гость.
Предлагаем пройти революционный курс по гитаре.
Подарок от PrimaNota.Ru, забирай!