PrimaNota.ru - самый крупный в мире бесплатный архив песенных текстов, аккордов, табулатур и нот


Rooster Teeth - On The Spot Theme - таба, видео

Регистрация Запомнить меня
Войти через:  Facebook Google Twitter Vk Yandex Mail.ru

Rooster Teeth - On The Spot Theme - таба, видео

Печатать
Просмотров: 93
Уроки эстрадного вокала в Санкт-Петербурге
-------------------------------------------------------------------------------
                             On The Spot Theme
-------------------------------------------------------------------------------
Tabbed by: geo
Tumblr: roosterteethofficial

Tuning: Standard

e|--------------------------------1-----------------------1-------------1-3--|
B|-----1-3--------------------1-3---------------------1-3---1-------1-3------|
G|-0-3-----3--3-3-2---0---0-3---------3-3-2---0---0-3-----------0-3----------|
D|------------------3-----------------------3--------------------------------|
A|---------------------------------------------------------------------------|
E|---------------------------------------------------------------------------|

e|---------------------------------------------------------------------------|
B|---------------------------------------------------------------------------|
G|-3-3-2---0-0---------------------------------------------------------------|
D|-------3-------------------------------------------------------------------|
A|---------------------------------------------------------------------------|
E|---------------------------------------------------------------------------|

Добавлено: 12.06.2016
Вам также может быть интересно:
Другие материалы по этой песне:
  • Аккорды и текст

Страница создана 12.06.2016
http://primanota.ru/rooster-teeth/on-spot-theme-chords.htm
Привет, Гость.
Предлагаем пройти революционный курс по гитаре.
Подарок от PrimaNota.Ru, забирай!