PrimaNota.ru - самый крупный в мире бесплатный архив песенных текстов, аккордов, табулатур и нот


Rooster Teeth - Blood Gulch Blues - таба, видео

Регистрация Запомнить меня
Войти через:  Facebook Google Twitter Vk Yandex Mail.ru

Rooster Teeth - Blood Gulch Blues - таба, видео

Печатать
Просмотров: 113
Уроки эстрадного вокала в Санкт-Петербурге
-------------------------------------------------------------------------------
                            Blood Gulch Blues - Rooster Teeth
-------------------------------------------------------------------------------
Tabbed by:thelukasgrasser
E-mail: thelukasgrasser@gmail.com

Email me for new tabs!!

Tuning: Standard

e|-----0------0------0------0--------------------------0~---------------------|
B|-----1------1------1------1------------------------0------------------------|
G|-----2------2------2------2------2~------1~------0--------------------------|
D|-----2------2------2------2------3~------2~---------------------------------|
A|--0-----0-------0-----0----------3~------2~---0-----------------------------|
E|---------0-----0-------0-----0h1-----0--------------------------------------|



************************************

| /   slide up
| \   slide down
| h   hammer-on
| p   pull-off
| ~   vibrato
| +   harmonic
| x   Mute note
| b   Bend
| pb  Pre-bend
| br  Bend release
| pbr Pre-bend release
| brb Bend release bend

************************************
Добавлено: 10.12.2015
Другие материалы по этой песне:
  • Аккорды и текст

Страница создана 10.12.2015
http://primanota.ru/rooster-teeth/blood-gulch-blues-chords.htm
Привет, Гость.
Предлагаем пройти революционный курс по гитаре.
Подарок от PrimaNota.Ru, забирай!