PrimaNota.ru - самый крупный в мире бесплатный архив песенных текстов, аккордов, табулатур и нот


Roosevelt - Hold On - бас-таба, видео

Регистрация Запомнить меня
Войти через:  Facebook Google Twitter Vk Yandex Mail.ru

Roosevelt - Hold On - бас-таба, видео

Печатать
Просмотров: 129
-------------------------------------------------------------------------------
                             HOLD ON - Roosevelt
-------------------------------------------------------------------------------
Tabbed by: Ryan Rehr
E-mail: rrehr@live.com

A very fun and funky groove. Listen to the song to see how he mutes each note during the chorus. 
Enjoy!

Tuning: Drop D (DADG)

INTRO/VERSE

G|---------------------------------------------------------------------------|
D|-----------------------------2-4--7-7x--7x7/-----------6-------------------|
A|-11\4-4x-4x-4\---0-2x2x-2x--------------------0-2x2x-2---------------------|
D|---------------------------------------------------------4-----------------|

CHORUS

G|---------------------------------------------------------------------------|
D|---------------------------------------------------------------------------|
A|-0-0--0--0-0-0--0-0--0-0-0-4-4--4--4-4-4-2-2-2--2-2-2--0-0-0---------------|
D|---------------------------------------------------------------------------|

G|---------------------------------------------------------------------------|
D|-----4-4-4--4-4-4----------------------------------------------------------|
A|------------------2-2-2-2-2-2-2--------------------------------------------|
D|-6-6-----------------------------4-4-4-------------------------------------|


| /  slide up
| \  slide down
| h  hammer-on
| p  pull-off
| ~  vibrato
| +  harmonic
| x  Mute note
===============================================================================
Добавлено: 05.06.2016
Вам также может быть интересно:
Другие материалы по этой песне:
  • Аккорды и текст

Страница создана 05.06.2016
http://primanota.ru/roosevelt/hold-on-chords.htm
Привет, Гость.
Предлагаем пройти революционный курс по гитаре.
Подарок от PrimaNota.Ru, забирай!