PrimaNota.ru - самый крупный в мире бесплатный архив песенных текстов, аккордов, табулатур и нот


Roop Kumar Rathod - Dil Ko Tumse Pyar Hua - таба, видео

Регистрация Запомнить меня
Войти через:  Facebook Google Twitter Vk Yandex Mail.ru

Roop Kumar Rathod - Dil Ko Tumse Pyar Hua - таба, видео

Печатать
Просмотров: 65
-------------------------------------------------------------------------------

-------------------------------------------------------------------------------
Tabbed by: DURER IMON
E-mail:tahmid.im@hotmail.com

e------------------------------------------------------------------------------------------------------|
B-----0--1----3--1--0---0-----1--0--------------0------------------------------------------------------|
G--2------------------2-------------2---0-2--------2--0------------------------------------------------|
D--------------------------------------------------------0--2------------------------------------------|
A------------------------------------------------------------------------------------------------------|
E------------------------------------------------------------------------------------------------------|
Dilko Tumse Pyaar Hua Pehli Baar Hua Thumse Pyaar Hua


e------------------------------------------------------------------------------------------------------|
B-----0--1----3--1--0---0-----1--0--------------0------------------------------------------------------|
G--2------------------2-------------2---0-2--------2--0------------------------------------------------|
D--------------------------------------------------------0--2------------------------------------------|
A------------------------------------------------------------------------------------------------------|
E------------------------------------------------------------------------------------------------------|
Main Bhi Aashiq Yaar Hua Pehli Baar Hua Tumse Pyaar Hua


e--0--------0--------0--------0--------0-------0--1--0-------0--|
B-----1--3----1---------1--3----1---------1--3----------3--1----|
G---------------2-----------------2-----------------------------|
D---------------------------------------------------------------|
A---------------------------------------------------------------|
E---------------------------------------------------------------|
Chaayi Hai Betaabi Chaayi Hai Betaabi Meri Jaan Kahon Main Kya Karoon
Chaayi Hai Betaabi Chaayi Hai Betaabi Meri Jaan Kahon Main Kya Karoon


e--------------------------------------------------------------|
B-----0--1----3--1--0---0-----1--0--------------0--------------|
G--2------------------2-------------2---0-2--------2--0--------|
D--------------------------------------------------------0--2--|
A--------------------------------------------------------------|
E--------------------------------------------------------------|
Dilko Tumse Pyaar Hua Pehli Baar Hua Thumse Pyaar Hua


e--------------------------------------------------------------|
B-----0--1----3--1--0---0-----1--0--------------0--------------|
G--2------------------2-------------2---0-2--------2--0--------|
D--------------------------------------------------------0--2--|
A--------------------------------------------------------------|
E--------------------------------------------------------------|
Main Bhi Aashiq Yaar Hua Pehli Baar Hua Tumse Pyaar Hua


e----------------------------------------------------------------------------------------------------------|
B--1--0-1--0-1-3-1-0----------0--1--0-1--0-1-3-1-0---------------------------------------------------------|
G---------------------2-----2-----------------------2------------------------------------------------------|
D----------------------------------------------------------------------------------------------------------|
A----------------------------------------------------------------------------------------------------------|
E----------------------------------------------------------------------------------------------------------|
Kho Gaya Main Khayalon Mein Ab Neend Nahin Aankhon Mein

Karvate Bas Badalta Hoon
Ab Jaagta Hoon Main Raaton Mein


e-------------------------------0--------------------------------------------------------------------------|
B--0--1--3-----0--1--3-----0--1----3--1--0-----------------------------------------------------------------|
G----------------------------------------------------------------------------------------------------------|
D----------------------------------------------------------------------------------------------------------|
A----------------------------------------------------------------------------------------------------------|
E----------------------------------------------------------------------------------------------------------|
Ab Doori Na sahni Har Lamha kehta Hain
Na Jaane Haal mera Aisa Kyon rehta Hain


e----3--5-3--5-3--5-3--------------------------------------------------------------------------------------|
B-5--------------------5-3-----3---------------------------------------------------------------------------|
G---------------------------5-----5--2---------------------------------------------------------------------|
D----------------------------------------------------------------------------------------------------------|
A----------------------------------------------------------------------------------------------------------|
E----------------------------------------------------------------------------------------------------------|
Main Deewana Tera Bangaya Jaane Jaana
Main Fasana Tera Bangaya Jaane Jaana


e------------------------------------------------------------------------------------|
B----------3--5--5-5-------------3--5--5-5------------3--5--3-5--3-5--3-5--....fade--|
G--2-2--5----------------2-2--5---------------2-2--5---------------------------------|
D------------------------------------------------------------------------------------|
A------------------------------------------------------------------------------------|
E------------------------------------------------------------------------------------|
Haseena Gori Gori Churaye Chori Chori Churaye Dil Chori Chori Chori Chori Chori

e--------------------------------------------------------------|
B-----0--1----3--1--0---0-----1--0--------------0--------------|
G--2------------------2-------------2---0-2--------2--0--------|
D--------------------------------------------------------0--2--|
A--------------------------------------------------------------|
E--------------------------------------------------------------|
Dilko Tumse Pyaar Hua Pehli Baar Hua Thumse Pyaar Hua


e--------------------------------------------------------------|
B-----0--1----3--1--0---0-----1--0--------------0--------------|
G--2------------------2-------------2---0-2--------2--0--------|
D--------------------------------------------------------0--2--|
A--------------------------------------------------------------|
E--------------------------------------------------------------|
Main Bhi Aashiq Yaar Hua Pehli Baar Hua Tumse Pyaar Hua


************************************

| /   slide up
| \   slide down
| h   hammer-on
| p   pull-off
| ~   vibrato
| +   harmonic
| x   Mute note
| b   Bend
| pb  Pre-bend
| br  Bend release
| pbr Pre-bend release
| brb Bend release bend

************************************
Добавлено: 01.05.2016
Другие материалы по этой песне:
  • Аккорды и текст

Страница создана 01.05.2016
http://primanota.ru/roop-kumar-rathod/dil-ko-tumse-pyar-hua-chords.htm
Привет, Гость.
Предлагаем пройти революционный курс по гитаре.
Подарок от PrimaNota.Ru, забирай!