PrimaNota.ru - самый крупный в мире бесплатный архив песенных текстов, аккордов, табулатур и нот


Rooney - Im Shaking - аккорды и текст, таба, видео

Регистрация Запомнить меня
Войти через:  Facebook Google Twitter Vk Yandex Mail.ru

Rooney - Im Shaking - аккорды и текст, таба, видео

Печатать
Просмотров: 203
Im Shaking
Rooney
ROONEY - I'M SHAKING (Rythm Guitar)

delerious_me@msn.com


INTRO

E--6-----4----
B--8--4--6----
G--8--6--6----
D-----6-------  (let the notes ring)
A-------------
E-------------

E--66666666----------4444444444444444---------------------
B--88888888-44444444-6666666666666666-44444444-66666666---
G--88888888-66666666-6666666666666666-66666666-88888888---
D-----------66666666------------------66666666-88888888---
A---------------------------------------------------------
E---------------------------------------------------------


VERSE

E--------------666xx666---------------------      -----------
B--444xx444----888xx888---666xx666666xx666--      --1-3-1-3--
G--666xx666----888xx888---888xx888888xx888--      --3-5-3-5--
D--666xx666---------------888xx888888xx888--  x4  --3-5-3-5--
A-------------------------------------------      -----------
E-------------------------------------------      -----------
  "I've forg..."	   "to feel normal..."	  "Now I'm..."


CHORUS

E--4444444444444444----------------------
B--6666666666666666-4444444444444444-666-
G--6666666666666666-6666666666666666-888-
D-------------------6666666666666666-888-  x2
A----------------------------------------
E----------------------------------------
   "Sha sha Shaking..."


E--66666666----------4444444444444444-66666666-----------
B--88888888-44444444-6666666666666666-88888888-66666666--
G--88888888-66666666-6666666666666666-88888888-88888888--
D-----------66666666---------------------------88888888--
A--------------------------------------------------------
E--------------------------------------------------------
   ".....now...."
    --These 3 are the intro chords-->


BRIDGE

E--4444444444444444-6666666666666666------
B--6666666666666666-8888888888888888--44--
G--6666666666666666-8888888888888888--66--
D-------------------------------------66--
A-----------------------------------------
E-----------------------------------------
  "I'm supposed..." "... better..."


E--4444444444444444-66666666----------------------------
B--6666666666666666-88888888-33333333-44444444-33333333-
G--6666666666666666-88888888-55555555-66666666-55555555-
D----------------------------55555555-66666666-55555555-
A-------------------------------------------------------
E-------------------------------------------------------
  "this nightmare's..."	  "...to end..."


E-------------------------------------------------------
B--11111111-33333333-4444444-33333333-44444444----------
G--33333333-55555555-6666666-55555555-66666666-66666666-
D--33333333-55555555-6666666-55555555-66666666-88888888-
A----------------------------------------------88888888-
E-------------------------------------------------------
"..holding on..."               "...holding on..."


End on

E--4--
B--6--
G--6--
D-----
A-----
E-----


SONG ORDER:

Intro
Verse
Chorus
Verse
Chorus (without intro chords)
Bridge
Chorus x3

_________________________________________________________________
     
Добавлено: 21.09.2013
Другие материалы по этой песне:
  • Аккорды и текст

Страница создана 21.06.2012
http://primanota.ru/rooney/im-shaking-chords.htm
Привет, Гость.
Предлагаем пройти революционный курс по гитаре.
Подарок от PrimaNota.Ru, забирай!