PrimaNota.ru - самый крупный в мире бесплатный архив песенных текстов, аккордов, табулатур и нот


Rooney - Holdin On - таба, видео

Регистрация Запомнить меня
Войти через:  Facebook Google Twitter Vk Yandex Mail.ru

Rooney - Holdin On - таба, видео

Печатать
Просмотров: 100
Intro Base Guitar : C G Em D

 C           G               Em                D                       
I was young, Id seen it all. A cemetery in the middle of a super mall.
 C                G                Em            D                          
I went to school. I never learned. How it feels, how everything you love can burn.
 C            G            Em            D                        
And it never stops. Its all I got. And I never know when to turn.
 C           G            Em                D     
Like a merry-go-round it all comes around again.


[CORO]
                  C        G                 Em        D
And I dont know why I'm here, I dont know where Ill go
                  C      G             Em       D
If I dont give it time, how could this garden grow?
            C             G                   B                    Em  
I dont know what I've lost, and I dont know how to get it back
       D         Am
But Im holdin' on
           D
Im holdin on, for as long as I can"

---- REPEAT INTRO --------
          
   C          G                 Em                       D
I moved away, I quit the band. I saw it comin it was written on the back of my hand.
C          G             Em                       D
Every day. I could feel. Something' missin' I went home to get a record deal.
C          G                 Em                       D
And my mother said, your theirs to your dead, to them its just another meal.
C          G             Em                   D
Now I'm fat with regret. Im placin' my bet on me.

------- REPEAT [CORO] ---------

A7m (x02010)
Cadd9 (x320xx)
B7m (x24232)


A7m                      B7m
It's not over yet, no, it's not even close
             Cadd9                B7m
My heart is younger, stronger than 100 cowards in a row
              A7m                      B7m
And all my curiosity will keep me asking, "What went wrong?
               Cadd9  
When it's all done, when it's gone,
                                 B
No, it won't be long 'til I'm traveling back in time
To a place when I was mine


SOLO : C G Em D (x2)

----- REPEAT [CORO] -----

C G Em D

(Repeat until End)






SOLO GUITAR



INTRO Solo Guitar:
1---------7--------------9----------------------------------------------|
2-------8---8----------8---8----------8-10--8----------8-10-8-7-8-------|
3---7-9-------9-7--7-9-------9-7--7-9---------9-7--7-9------------------|
4-----------------------------------------------------------------------|
5-----------------------------------------------------------------------|
6-----------------------------------------------------------------------|


And it never stops ....
1---x----x--x-------x----x--x-----x----x--x----x---x-x--|
2---5/8--8--8------5/8---8--8----5/8---8--8---5/8--7-7--|
3---x----x--x-------x----x--x-----x----x--x----x---x-x--|  2x
4---x----x--x-------x----x--x-----x----x--x----x---x-x--|
5---7/10-10-10-----7/10-10-10----7/10-10-10---7/10-9-9--|
6---x----x--x-------x----x--x-----x----x--x----x---x-x--|

[CORO] : G5 G5 G5 D5
         G5 G5 G5 D5
         G5 G5 G5 B5 E5
         A5 D5


---- REPEAT INTRO -----


And my mother said...
1---x----x--x-------x----x--x-----x----x--x----x---x-x--|
2---5/8--8--8------5/8---8--8----5/8---8--8---5/8--7-7--|
3---x----x--x-------x----x--x-----x----x--x----x---x-x--|  2x
4---x----x--x-------x----x--x-----x----x--x----x---x-x--|
5---7/10-10-10-----7/10-10-10----7/10-10-10---7/10-9-9--|
6---x----x--x-------x----x--x-----x----x--x----x---x-x--|

---- REPEAT [CORO] -----

A7m                      B7m
It's not over yet, no, it's not even close
             Cadd9                B7m
My heart is younger, stronger than 100 cowards in a row
              A7m                      B7m
And all my curiosity will keep me asking, "What went wrong?
               Cadd9  
When it's all done, when it's gone,
                                 B
No, it won't be long 'til I'm traveling back in time
To a place when I was mine


SOLO:

1.------------------------------------------------|
2.------------------------------------------------|
3.------------------------------------------------|
4.--0-2-5-0-2-5-2-0-------------------------------|
5.------------------3-2-0-------2-----3-----7-55--|
6.------------------------3-0-3---0-3---0-3-------|

1. --------------------------------------|
2. --------------------------------------|
3. --------------------------------------|
4. -2/5-4-2------------------------------|
5. ---------5-4-55--4/5-55-4-22-00-------|
6. --------------------------------------|


------ REPEAT [CORO] -------

1---------7--------------9----------------------------------------------|
2-------8---8----------8---8----------8-10--8----------8-10-8-7-8-------|
3---7-9-------9-7--7-9-------9-7--7-9---------9-7--7-9------------------|    x2
4-----------------------------------------------------------------------|  
5-----------------------------------------------------------------------|
6-----------------------------------------------------------------------|

1---x----x--x-------x----x--x-----x----x--x----x---x-x--|
2---5/8--8--8------5/8---8--8----5/8---8--8---5/8--7-7--|
3---x----x--x-------x----x--x-----x----x--x----x---x-x--| 
4---x----x--x-------x----x--x-----x----x--x----x---x-x--|
5---7/10-10-10-----7/10-10-10----7/10-10-10---7/10-9-9--|
6---x----x--x-------x----x--x-----x----x--x----x---x-x--|
Добавлено: 14.05.2012
Другие материалы по этой песне:
  • Аккорды и текст

Страница создана 14.05.2012
http://primanota.ru/rooney/holdin-on-chords.htm
Привет, Гость.
Предлагаем пройти революционный курс по гитаре.
Подарок от PrimaNota.Ru, забирай!