PrimaNota.ru - самый крупный в мире бесплатный архив песенных текстов, аккордов, табулатур и нот


Room Full Of Walters - Laughing At The Ground - таба, видео

Регистрация Запомнить меня
Войти через:  Facebook Google Twitter Vk Yandex Mail.ru

Room Full Of Walters - Laughing At The Ground - таба, видео

Печатать
Просмотров: 84
Author/Artist: Room Full of Walters
Title: Laughing at the Ground
Album: Sleepy-Head
Transcribed by: John Farthing
Email: spamboy@mindless.com

Intro:  (repeat several times)
-----------------------------------------------------------------------------
-----------------------------------------------------------------------------
-6-6------8-8--11-11-----6---6-------------------6---6--8--10--11--10-8------
-6-6-4-4--8-8--11-11-------8---8----6--8--6--8-----8-------------------------
-4-4-4-4--6-6--9--9----------------------------------------------------------
-----2-2---------------------------------------------------------------------
                                                                              

Verse:(pm)
|----------------------------------------------|-----------------------------
|----------------------------------------------|---12^--12^------------------
|6-6-6--x-x--------------8-8-8--x-x--11-11-11--|-----------------------------
|6-6-6--x-x--4-4-4--x-x--8-8-8--x-x--11-11-11--|-----------------------------
|4-4-4--x-x--4-4-4--x-x--6-6-6--x-x--9--9--9---|-----------------------------
|------------2-2-2--x-x------------------------|-----------------------------
                                                                              

Pre-Chorus:
-----------------------------------
-----------------------------------
-----------------------------------
--8-8-8-8-8-8-8-8-5-5-5-5-4-4-4-4--
--8-8-8-8-8-8-8-8-5-5-5-5-4-4-4-4--
--6-6-6-6-6-6-6-6-3-3-3-3-2-2-2-2--
                                                                              

Chorus:
--------------------------------------------|--------------------------------
--------------------------------------------|--------------------------------
---11-11-11-11-------------8-8-8-8---------.|---11-11-------8-8--------------
---11-11-11-11-11-11-11-11-8-8-8-8-9-9-9-9-.|---11-11-11-11-8-8-9-9----------
---9--9--9--9--11-11-11-11-6-6-6-6-9-9-9-9--|---9--9--11-11-6-6-9-9----------
---------------9--9--9--9----------7-7-7-7--|---------9--9------7-7----------
                                                                              
Repeat intro


the kinda-ska part is just intro chords picked only on the upstrokes.



I'm work of tab for the RFOW songs Jeffery Dahmer went to Heaven, Knees, and 
Home.  If anybody already has one of these, please send them to me at:
farthing@swbell.net thanks.
     
Добавлено: 15.07.2013
Другие материалы по этой песне:
  • Аккорды и текст

Страница создана 15.07.2013
http://primanota.ru/room-full-of-walters/laughing-at-the-ground-chords.htm
Привет, Гость.
Предлагаем пройти революционный курс по гитаре.
Подарок от PrimaNota.Ru, забирай!