PrimaNota.ru - самый крупный в мире бесплатный архив песенных текстов, аккордов, табулатур и нот


Room Full Of Walters - Jeffrey Dahmer Went To Heaven - таба, видео

Регистрация Запомнить меня
Войти через:  Facebook Google Twitter Vk Yandex Mail.ru

Room Full Of Walters - Jeffrey Dahmer Went To Heaven - таба, видео

Печатать
Просмотров: 280
Уроки эстрадного вокала в Санкт-Петербурге
		   Author/Artist: Room Full of Walters
Song: Jeffrey Dahmer Went To Heavem
Album: Sleepyhead
Transcribed by: Jeremy Satterfield
E-mail: Satt@feist.com


Lead at end of verse 1:
e---------------------------------------------------
b--9--------------------------------11-------14-14-14-14-13-13-13-13-14-14-14-14
g----8----------------------9--9s12----12s13-13-13-13-13-12-12-12-12-13-13-13-13
d------10-10/11\10-10/11\10-------------------------------------------
a---------------------------------------------------
e----------------------------------------------------
s= slide
e--------------------------------||
b-14-14-14-14-14-14-14-14-14ssss-||
g-15-15-15-15-15-15-15-15-15ssss-||
d--------------------------------||
a--------------------------------||
e--------------------------------||


Chords:
G#                                C
Jeffrey Dahmer went to heaven, or else he lied on television
        C#         C                  C#               Eb
He told us that he found you; he told us that you were true
G#                                C
Jeffrey Dahmer went to heaven, or else he made a wrong decision
        C#         c                C#          Eb
He told us that he saw you; he told us you were true


Chorus:
                     G#                    C
But what did he tell you? What did he tell you?
            C#         C                     C#
Did he just bow down before you? Did he just say
            Eb
That he was wrong? 
               G#             C
And what about us? What about all of us?
            C#         C
Can we just bow down before you?
            C#          Eb
Can we just say we were wrong?
(Repeat chords throughout song)
Solo:Still working on it



Lead after solo:
e-------------------------------------||-------------------------------
b-------------------------------------||-------------------------11-11-
g-15/17\15-13/15\14-12/13\12-10-9-10-.||-10-10-10-10-10-10-10-10-12-12-
d------------------------------------.||-------------------------------
a-------------------------------------||-------------------------------
e-------------------------------------||-------------------------------
bend up then down/\


e-------------||
b-11-11-11sss-||
g-12-12-12sss-||
d-------------||
a-------------||
e-------------||     
Добавлено: 22.06.2013
Другие материалы по этой песне:
  • Аккорды и текст

Страница создана 22.06.2013
http://primanota.ru/room-full-of-walters/jeffrey-dahmer-went-to-heaven-chords.htm
Привет, Гость.
Предлагаем пройти революционный курс по гитаре.
Подарок от PrimaNota.Ru, забирай!