PrimaNota.ru - самый крупный в мире бесплатный архив песенных текстов, аккордов, табулатур и нот


Rookiez Is Punkd - Song for... - аккорды и текст, видео

Регистрация Запомнить меня
Войти через:  Facebook Google Twitter Vk Yandex Mail.ru

Rookiez Is Punkd - Song for... - аккорды и текст, видео

Печатать
Просмотров: 95
Song for...
Rookiez Is Punkd
Song for...
ROOKiEZ is PUNK'D

Tuning: Standard
Intro:
Acoustic
e |-----------------------0-------------------------|
B |-----------3---------------3---------3-----------|
G |--------2---------------------------------2------|
D |-----0-----------0--------------0----------------|
A |-------------------------------------------------|
E |-------------------------------------------------|

e |------------------------------------------------------|
B |------------------------------------------------------|
G |------------------------------------------------------|
D |------------------------------------------------------|
A |-----5---5---5---5---5---0---0------------------------|
E |--------------------------------------3---3---5-------|

D-F#m-Bm-G-A

Lead/Violin Part

e |-----14h15-----17-----15-----14h15-----14-----------------|
B |----------------------------------------------------------|
G |----------------------------------------------------------|
D |----------------------------------------------------------|
A |----------------------------------------------------------|
E |----------------------------------------------------------|


Verse:
        D                          F#m
kimi no emi de michita EVERYDAY sannen no tsukihi wa hayasugite 
      Bm                             G                   A
nande mo nee kaiwa to CRAZY FACE itsumademo yuugure no eki de 
    D
wakare oshinde ienai "jaa ne" 
F#m                              Bm
futari toki no yurusu made toshi wo kasanete ai wo GROWIN' GROWIN'... 
     G                  A
tsuzuku hazu datta no ni... 


D                         G
   moshi negai kanau nara   mo ichido hana sakasete 
Bm            A                  G   A                D
ima nara kimi no kanashimi mo kitto uketomerareru kara 


      F#m               Bm      G          A        D
kurayami no BLIND DAY & DAY ashimoto sura mienakute 
             F#m             Bm     G          A                 
kanashimi to kokai no kusari wa mogaku hodo karamaru dake 
D                            F#m
kono mama ja itsuka wa SID & NANCY 
                                 Bm
nukedase nee LOOP LIKE A FUCKIN' JUNKY 
                           G
soredemo kono magatta LOVE SONG
                             Em
kore kara no mirai wo takusou 
                 F#m                G                    A
chikara naku tomo   koe karete temo   todokanaku tomo  kono uta wo utau yo 

D                          G
   moshi negai kanau nara  mo ichido hana sakasete 
Bm             F#m                G       A                   D 
itsushika kitto kanashimi no hibi no      imi mo wakaru kara 
                            G
hoshi kagayaku sora no shita  tsukiakari ni terasarete 
Bm             F#m              G       
furueta moji de kakitsuketa negai 
    A                        Bm
"I wish you will be happy" 

                         F#m                                    D
fukaku mune ni kizamikomarete itsumade tatte mo kieru koto nai pain 
Bm                 F#m                                       D
taiyou sura ooikakushite mada yamu koto naku furitsuzukeru rain 
Bm         F#m      Bm              G                 Em
kumoma kara koboreta  hitosuji no hikari wo taguri yosete 
  A
asu wo tsumugu 


D                        G
   moshi negai kanau nara  mo ichido hana sakasete 
Bm            F#m                G     A                      
ima nara kimi no kanashimi mo kitto ... uketomerareru kara 
D                           G
hoshi kagayaku sora no shita  mou nidoto karenai hana 
Bm           F#m                 G
sakaseru asu wo koko ni chikau kara 
     A
"I promise I'll make you happy"


I dedicate this song to Lovely Rose, who introduced me this song. 
Добавлено: 25.12.2015
Вам также может быть интересно:
Другие материалы по этой песне:
  • Аккорды и текст

Страница создана 28.12.2013
http://primanota.ru/rookiez-is-punkd/song-for-chords.htm
Привет, Гость.
Предлагаем пройти революционный курс по гитаре.
Подарок от PrimaNota.Ru, забирай!