PrimaNota.ru - самый крупный в мире бесплатный архив песенных текстов, аккордов, табулатур и нот


Rookantha Gunathilake - Kiyanna Jesuni Ma Obeda - аккорды и текст, видео

Регистрация Запомнить меня
Войти через:  Facebook Google Twitter Vk Yandex Mail.ru

Rookantha Gunathilake - Kiyanna Jesuni Ma Obeda - аккорды и текст, видео

Печатать
Просмотров: 128
Уроки эстрадного вокала в Санкт-Петербурге
Kiyanna Jesuni Ma Obeda
Rookantha Gunathilake
-------------------------------------------------------------------------------
                 Kiyanna Jesuni Ma Obeda - Rookantha Gunathilake              
-------------------------------------------------------------------------------

Tabbed by: laviru93doodle a.k.a Laviru K.

Tabbed from this : http://youtu.be/k9zzqAT5v9M

chords+lead parts

Intro:
e|----------|----------------|----------|----------------------|
B|----------|----------------|----------|----------------------|
G|----------|----------------|----------|----------------------|
D|----/5-5--|-5-3------------|----/5-3--|-5-3------------------|
A|-1--------|------6-5-3-5-3-|-1--------|------6-5-3-5-1-------|
E|----------|----------------|----------|----------------------|

e|----------|----------------|----1h3-1-|----------------|--8\-|
B|----------|-4p3------------|----------|-4-6-4-6b-4h6p4-|--9\-|
G|----3/5-5-|------5p3-1-3-1-|-1--------|----------------|-----|
D|-/5-------|----------------|----------|----------------|-----|
A|----------|----------------|----------|----------------|-----|
E|----------|----------------|----------|----------------|-----|


Eb       Bb    Ab        Bb      Eb         
Himidiri yaame pini keta dilisenawa

e|---------|
B|-6p4-----|
G|---------|
D|---------|
A|---------|
E|---------|

Eb       Bb     Ab      Bb       Eb
Samiduge muhune hasarel mathuwenawa

e|-/10-10--|-10-8----------|
B|---------|-------11-8-13-|
G|---------|---------------|
D|---------|---------------|
A|---------|---------------|
E|---------|---------------|

Gm  Cm   Fm   Bb         Eb
Aadare namin, jeewithe puda

e|--------------------|
B|--7/8---------------|
G|-------8------------|
D|--------------------|
A|--------------------|
E|--------------------|

 Fm   Ab      Bb         Eb   
Edath adath hetath hinawela

     Ab         Bb
e|---11----|----13----|
B|---13----|----15----|
G|---------|----------|
D|---------|----------|
A|---------|----------|
E|---------|----------|

Eb                Cm
Jesune me obada , jesuni ma obeda
  Ab    C   Fm    Bb        Eb
Kiyanna jesuni, kiyanna jesuni

e|--10h11p10----------|
B|------------11-8----|
G|--------------------|
D|--------------------|
A|--------------------|
E|--------------------|

  Fm    Ab  Bb       Eb
Kiyanna jesuni ma obeda

e|----------|----------------|----------|----------------------|
B|----------|----------------|----------|----------------------|
G|----------|----------------|----------|----------------------|
D|----/5-5--|-5-3------------|----/5-3--|-5-3------------------|
A|-1--------|------6-5-3-5-3-|-1--------|------6-5-3-5-1-------|
E|----------|----------------|----------|----------------------|

e|----------|----------------|----1h3-1-|----------------|--8\-|
B|----------|-4p3------------|----------|-4-6-4-6b-4h6p4-|--9\-|
G|----3/5-5-|------5p3-1-3-1-|-1--------|----------------|-----|
D|-/5-------|----------------|----------|----------------|-----|
A|----------|----------------|----------|----------------|-----|
E|----------|----------------|----------|----------------|-----|


Eb     Bb     Ab        Bb       Eb    
Ginimaddahane thanapath malanwenawa

e|---------------------------|
B|-----------8--11-----------|
G|--7/8--10------------------|
D|---------------------------|
A|---------------------------|
E|---------------------------|

Eb     Bb     Ab    Bb      Eb
Dasadasak paw magen siduwenawa

e|-9/10-9/10----|--10-8-------------------|
B|--------------|--------11-8--13---------|
G|--------------|-------------------------|
D|--------------|-------------------------|
A|--------------|-------------------------|
E|--------------|-------------------------|

Gm  Cm   Fm 
Aadare namin 

e|------------11-|
B|------9-11-----|
G|--10-----------|
D|---------------|
A|---------------|
E|---------------|

    Bb     Eb
paw kama wela
  Fm   Ab     Bb           Eb   
Raththaran hadak matath denna

     Ab         Bb
e|---11----|----13----|
B|---13----|----15----|
G|---------|----------|
D|---------|----------|
A|---------|----------|
E|---------|----------|

Eb                Cm
Jesune me obada , jesuni ma obeda
  Ab    C   Fm    Bb        Eb
Kiyanna jesuni, kiyanna jesuni

e|-10-10\--|
B|-11-11\--|
G|---------|
D|---------|
A|---------|
E|---------|

  Fm    Ab  Bb       Eb
Kiyanna jesuni ma obeda

[PIANO SOLO]

Eb       Bb      Ab     Bb       Eb
Nisasala rayehi obawa mathak wenawa

e|--10-11-10---------------------|
B|------------13-11-13-----------|
G|-------------------------------|
D|-------------------------------|
A|-------------------------------|
E|-------------------------------|

Eb       Bb       Ab       Bb      Eb
Kala paw sihiwi mage hitha kakiyanawa

e|--10-11-12b13-10---------------|
B|------------------13-11-13-----|
G|-------------------------------|
D|-------------------------------|
A|-------------------------------|
E|-------------------------------|

Gm  Cm   Fm     Bb         Eb
Aadare namin, susum maka mage

e|-------------------------------|
B|-------------------------------|
G|--7-8-10-----------------------|
D|-------------------------------|
A|-------------------------------|
E|-------------------------------|

  Fm    Ab      Bb    Eb
Aadare matath kiya denna

     Ab         Bb
e|---11----|----13----|
B|---13----|----15----|
G|---------|----------|
D|---------|----------|
A|---------|----------|
E|---------|----------|

Eb                Cm
Jesune me obada , jesuni ma obeda
  Ab    C   Fm    Bb        Eb
Kiyanna jesuni, kiyanna jesuni
  Fm    Ab  Bb       Eb
Kiyanna jesuni ma obeda

  Ab    C   Fm    Bb        Eb
Kiyanna jesuni, kiyanna jesuni
  Fm    Ab  Bb       Eb
Kiyanna jesuni ma obeda

  Ab    C   Fm    Bb        Eb
Kiyanna jesuni, kiyanna jesuni
  Fm    Ab  Bb       Eb
Kiyanna jesuni ma obeda

  Ab    C   Fm    Bb        Eb
Kiyanna jesuni, kiyanna jesuni
  Fm    Ab  Bb       Eb
Kiyanna jesuni ma obeda

  Ab    C   Fm    Bb        Eb
Kiyanna jesuni, kiyanna jesuni
  Fm    Ab  Bb       Eb
Kiyanna jesuni ma obeda

Solo >>>

e|-15-13------15b17-13----------------------------|------------12------------|
B|--------15------------15-15-15---13-15---13-----|-----13-15------15-13-----|
G|---------------------------------------------15-|-12-----------------------|
D|------------------------------------------------|--------------------------|
A|------------------------------------------------|--------------------------|
E|------------------------------------------------|--------------------------|

e|---------------------|--------------------------|
B|-----11-10-----------|--------------------------|
G|-10---------12-10-9--|------9-10-12-9-10*-------|
D|---------------------|--10----------------------|
A|---------------------|--------------------------|
E|---------------------|--------------------------|

*Sometimes the solo is played twice, if you do so , you can try to strum a F chord nicely instead of -10*- 
when you play it the second time.

F Chord :

e|--1--|         e|--8--|    
B|--1--|         B|--10-|              
G|--2--|  or     G|--10-|       
D|--3--|         D|--10-|              
A|--3--|         A|--8--|                 
E|--1--|         E|--x--|                



************************************

| /   slide up
| \   slide down
| h   hammer-on
| p   pull-off
| x   Mute note
| b   Bend

************************************
Добавлено: 11.08.2015
Вам также может быть интересно:
Другие материалы по этой песне:
  • Аккорды и текст

Страница создана 11.08.2015
http://primanota.ru/rookantha-gunathilake/kiyanna-jesuni-ma-obeda-chords.htm
Привет, Гость.
Предлагаем пройти революционный курс по гитаре.
Подарок от PrimaNota.Ru, забирай!