PrimaNota.ru - самый крупный в мире бесплатный архив песенных текстов, аккордов, табулатур и нот


Ronny Jordan - After Hours - таба, видео

Регистрация Запомнить меня
Войти через:  Facebook Google Twitter Vk Yandex Mail.ru

Ronny Jordan - After Hours - таба, видео

Печатать
Просмотров: 119
Уроки эстрадного вокала в Санкт-Петербурге
-------------------------------------------------------------------------------
                             AFTER HOURS - RONNY JORDAN
-------------------------------------------------------------------------------
Tabbed by: Dale Page
E-mail: dale.page.92@hotmail.com


Tuning: Standard: EADGBe


The numbers above the stave represent the time in which these parts appear in the song. Listen to the track to 
get the timing of each of these phrases, as it is the key to playing this song as smoothly as the record.


0:20

E|-----------------------------------------------------------
B|-----------------------------------------------------------
G|------13--9--------------------13--9-----------------------
D|-------------11/13--9--11-------------11/13--11/13--9--11--  x2
A|--11-----------------------11------------------------------
E|-----------------------------------------------------------

0:32

E|--------------------------------------------------
B|------12--10-------------------10--8--------------
G|--------------12/13--9--11------------9/11--7--9--
D|--11------------------------9---------------------
A|--------------------------------------------------
E|--------------------------------------------------

0:38

E|---------------------------------------------------------------
B|---------------------------------------------------------------
G|------13--9--------------------13--9-------------------13--11--
D|-------------11/13--9--11-------------11/13--11/13--9----------
A|--11-----------------------11----------------------------------
E|---------------------------------------------------------------

0:44

E|-----------------------------------------------------------
B|-----------------------------------------------------------
G|------13--9--------------------13--9-----------------------
D|-------------11/13--9--11-------------11/13--11/13--9--11--  x2
A|--11-----------------------11------------------------------
E|-----------------------------------------------------------

0:55

E|--------------------------------------------------
B|------12--10-------------------10--8--------------
G|--------------12/13--9--11------------9/11--7--9--
D|--11------------------------9---------------------
A|--------------------------------------------------
E|--------------------------------------------------

1:01

E|---------------------------------------------------------------
B|---------------------------------------------------------------
G|------13--9--------------------13--9-------------------13--11--
D|-------------11/13--9--11-------------11/13--11/13--9----------
A|--11-----------------------11----------------------------------
E|---------------------------------------------------------------

1:08

E|-----------------------------------------
B|-----------------------------------------
G|--8--6--8--6--4--6--4--------------8--6--
D|--9--8--9--8--6--8--6--4--4--4--4--9--8--
A|-----------------------6--6--6--6--------
E|-----------------------------------------

1:13

E|-----------------------------------------
B|-----------------------------------------
G|--8--6--8--6--4--6--4--------------8--6--
D|--9--8--9--8--6--8--6--4--4--4--4--9--8--
A|-----------------------6--6--6--6--------
E|-----------------------------------------

1:19

E|--------------------------
B|-----9--7--------7--5-----
G|--9--6--4--7--7--4--2--6--
D|--6--------4--4--------2--
A|--------------------------
E|--------------------------

1:24

E|-----------------------------------------
B|-----------------------------------------
G|--8--6--8--6--4--6--4--------------8--6--
D|--9--8--9--8--6--8--6--4--4--4--4--9--8--
A|-----------------------6--6--6--6--------
E|-----------------------------------------

1:29

E|-----------------------------------------------------------
B|-----------------------------------------------------------
G|------13--9--------------------13--9-----------------------
D|-------------11/13--9--11-------------11/13--11/13--9--11--  x2
A|--11-----------------------11------------------------------
E|-----------------------------------------------------------

1:41

E|--------------------------------------------------
B|------12--10-------------------10--8--------------
G|--------------12/13--9--11------------9/11--7--9--
D|--11------------------------9---------------------
A|--------------------------------------------------
E|--------------------------------------------------

1:46

E|---------------------------------------------------------------
B|---------------------------------------------------------------
G|------13--9--------------------13--9-------------------13--11--
D|-------------11/13--9--11-------------11/13--11/13--9----------
A|--11-----------------------11----------------------------------
E|---------------------------------------------------------------

1:52

E|-----------------------------------------------------------
B|-----------------------------------------------------------
G|------13--9--------------------13--9-----------------------
D|-------------11/13--9--11-------------11/13--11/13--9--11--  x2
A|--11-----------------------11------------------------------
E|-----------------------------------------------------------

2:03

E|--------------------------------------------------
B|------12--10-------------------10--8--------------
G|--------------12/13--9--11------------9/11--7--9--
D|--11------------------------9---------------------
A|--------------------------------------------------
E|--------------------------------------------------

2:09

E|---------------------------------------------------------------
B|---------------------------------------------------------------
G|------13--9--------------------13--9-------------------13--11--
D|-------------11/13--9--11-------------11/13--11/13--9----------
A|--11-----------------------11----------------------------------
E|---------------------------------------------------------------


This is where the solo then begins. Again, listen to the track carefully to get the timing down on these 
phrases. I have broke the solo up in sections, to make it easier to learn bit by bit. Again, the time in which
the phrases start in the track are written above the staves.


2:15

E|-------------------------------------------------------
B|-------------------------------------------------------
G|--13---------------------------------------------------
D|------12/13--11--13------9--11--11/13----------13--11--
A|---------------------11----------------11--11----------
E|-------------------------------------------------------

E|-------------------------------------------------------
B|-------------------------------------------------------
G|--13---------------------------------------------------
D|------12/13--11--13------9--11--11/13----------13--11--
A|---------------------11----------------11--14----------
E|-------------------------------------------------------

E|----------------------------------------------------------------
B|----------------------------------------10----------------------
G|------13--13--9------11-------------11------11---------9--6-----
D|--11-------------11------12--9--12--------------12--9--------7--
A|----------------------------------------------------------------
E|----------------------------------------------------------------

E|-------------------------------------------------------
B|-------------------------------------------------------
G|--13---------------------------------------------------
D|------12/13--11--13------9--11--11/13----------13--11--
A|---------------------11----------------11--14----------
E|-------------------------------------------------------

2:38

E|------------------------------------------------------------
B|------------------------------------------------------------
G|---------9-/11------9-/11-----------------------------------
D|------9--11-13------11-13------9--11--11/13------9--13--11--
A|--11------------11---------11----------------11-------------
E|------------------------------------------------------------

E|------------------------------------------------------------
B|------------------------------------------------------------
G|---------9--11------9-/11-----------------------------------
D|------9--11/13------11-13------9--11--11/13------9--13--11--
A|--11------------11---------11----------------11-------------
E|------------------------------------------------------------

2:49

E|------------------------------------------
B|------------------------------------------
G|----------------11/13h14p13/11--8-----11--
D|--9--11--13/14---------------------9------
A|------------------------------------------
E|------------------------------------------

E|-------------------------------------------------------
B|-------------------------------------------------------
G|---------------------------9-----------------9---------
D|--16/11--9-------------11-----11---------11-----11/13--
A|------------10------9-------------12--9----------------
E|----------------12-------------------------------------

2:55

E|-----------------------------------------------------
B|-----------------------------------------------------
G|---------9-/11-----------------9-/11-----------------
D|---------11-13--9--11--9h11p9--11-13-----------------
A|--13p11-------------------------------11--11--9--11--
E|-----------------------------------------------------

3:00

E|---------------------------------------------------------------------
B|---------------------------------------------------------------------
G|---------------------13p11--13---------------------------------------
D|----------11--11/13-------------13--11--13--11/13--11------11/13/11--
A|--11--14-----------------------------------------------14------------
E|---------------------------------------------------------------------

3:06

E|-------------------------------------------------------------------------
B|-------------------------------------------------------------------------
G|-------------------------------------------------------------------------
D|------------13--------------13--------------11---------11--9--9--13--11--
A|--11h13h14------11--11--11------11--11--11------11--9--------------------
E|-------------------------------------------------------------------------

E|---------------------------------------------------------------------------
B|---------------------------------12--12--12p10-----------------------------
G|-----------------11/13h14p13/11-----------------12/13--11--9--9/11---------
D|--9--11--13--14-----------------------------------------------------11/13--
A|---------------------------------------------------------------------------
E|---------------------------------------------------------------------------

3:18

E|------------------------------------------------
B|------------------------------------------------
G|------------------------------------------------
D|--11------11--11h13---------------9--11/13--11--
A|------14-------------11--11p9h11----------------
E|------------------------------------------------

3:23

E|------------------------------------------------------------------------------------
B|--16--14--12-16------------------------15-16--15/16----------16---------------------
G|-----------------11/13-------------------------------------------13-----------------
D|--13--11--9-/13---------11/13--11--13--12/13--12-13----------13------11/13--11--13--
A|-----------------------------------------------------16--14-------------------------
E|------------------------------------------------------------------------------------

3:33

E|---------------------------------------------------------------------------------
B|---------------------------------------------------------------------------------
G|--11--8/9------------------------9-----------------------11/9--6-----------------
D|-----------9------------8/9--11-----16/11--9----------------------11--14--12/13--
A|--------------11--9/11------------------------10------9--------------------------
E|--------------------------------------------------12-----------------------------

E|---------------------------------------------------------------------
B|---------------------------------------------------------------------
G|------------------------------------------------------------------6--
D|----------9--13--11--9---------9--11--9---------------6--------------
A|--14--11----------------11--9------------11--9--7--6-----9--7--6-----
E|---------------------------------------------------------------------


After this the flute solo begins. After the flute solo the head of the track, or the first part of this
tab, is repeated before the track fades out. I hope this tab helps anyone who wishes to learn the track, as
it is a great song.

Please comment below any corrections or improvements that you may find.

Thank you.


************************************

| /   slide up
| \   slide down
| h   hammer-on
| p   pull-off
| ~   vibrato
| +   harmonic
| x   Mute note
| b   Bend
| pb  Pre-bend
| br  Bend release
| pbr Pre-bend release
| brb Bend release bend

************************************
Добавлено: 07.06.2016
Другие материалы по этой песне:
  • Аккорды и текст

Страница создана 07.06.2016
http://primanota.ru/ronny-jordan/after-hours-chords.htm
Привет, Гость.
Предлагаем пройти революционный курс по гитаре.
Подарок от PrimaNota.Ru, забирай!