PrimaNota.ru - самый крупный в мире бесплатный архив песенных текстов, аккордов, табулатур и нот


Ronnie Montrose - Mandolinia - таба, видео

Регистрация Запомнить меня
Войти через:  Facebook Google Twitter Vk Yandex Mail.ru

Ronnie Montrose - Mandolinia - таба, видео

Печатать
Просмотров: 68
                     Ronnie Montrose
                          Open Fire
                         Mandolinia
        tabbed (for guitar) by C.J. Padiak


E------------------------------------------------------
B-15-14h15p14------------------------------------------
G------------14-16-16-14-14----------------------------
D---------------------------17-17-16-16-17-17-16-16----
A---------------------------------------------------17- (8 times)
e------------------------------------------------------



E------------------------            ------------------
B-15-14h15p14------------            -15-14h15p14------
G------------14-16-16-14- (5 times)  ------------14---- (2 times)
D------------------------            ------------------
A------------------------            ------------------
e------------------------            ------------------



E------------------------------------------------------
B-15-14h15p14------------------------------------------
G------------14-16-16-14-14----------------------------
D---------------------------17-17-16-16-17-17-16-16----
A---------------------------------------------------17- (4 times)
e------------------------------------------------------



E----------------------------------------------------------------
B----------------------------------------------------------------
G-14----14-------------------------------------------------------
D-----16----16-17-16-14-------15--14-----------------------------
A-----------------------17-13-------17---------------------------
e----------------------------------------------------------------



E----------------------------------------------------------------
B----------------------------------------------------------------
G-14----14b(16)14------------------------------------------------
D-----16-----------16-17-16-14-------15--14----------------------
A------------------------------17-13-------17--------------------
e----------------------------------------------------------------



E----------------------------------------------------17----------
B-------15-------------------------------------------------------
G-14------14-------------------------------------14--------------
D-----16------16-17-16-14-------15--14-------14------------------
A-------------------------17-13-------17-16----------------------
e----------------------------------------------------------------


     
Добавлено: 22.07.2013
Другие материалы по этой песне:
  • Аккорды и текст

Страница создана 22.07.2013
http://primanota.ru/ronnie-montrose/mandolinia-chords.htm
Привет, Гость.
Предлагаем пройти революционный курс по гитаре.
Подарок от PrimaNota.Ru, забирай!