PrimaNota.ru - самый крупный в мире бесплатный архив песенных текстов, аккордов, табулатур и нот


Romeo Santos - Que Se Mueran - текст песни, таба, видео

Регистрация Запомнить меня
Войти через:  Facebook Google Twitter Vk Yandex Mail.ru

Romeo Santos - Que Se Mueran - текст песни, таба, видео

Печатать
Просмотров: 170
E--14--12---------------------------0-17-17-17--0-15-15-15--0--12--|
B-----------15--14--12---------------------------------------------|
G------------------------------------------------------------------|
D------------------------------------------------------------------|
A------------------------------------------------------------------|
E------------------------------------------------------------------|


E--0--0-2-3---0--0-2--3------------0----0------------------5-5--3--5-5--3--|
B----------------------------0--0-2----2-----2---2-2--3--5-----------------|
G--------------------------------------------------------------------------|
D--------------------------------------------------------------------------|
A--------------------------------------------------------------------------|
E--------------------------------------------------------------------------|

E-----------------------2-2-3-3H5H3H2-0-5H3H2--|
B----0-0-2-3-2-2-2-----------------------------|
G----------------------------------------------|
D----------------------------------------------|
A----------------------------------------------|
E----------------------------------------------|

SOLO
E---15h14-12--15h14-12-15h14-12-----19-19-19-17-17-17-15-15-15-14-14-14-15-15-15---------|
B----------------------------------------------------------------------------------------|
G----------------------------------------------------------------------------------------|
D----------------------------------------------------------------------------------------|
A----------------------------------------------------------------------------------------|
E----------------------------------------------------------------------------------------|

E-------------------------------------------------------0--0--2-3-3-3-2-0-0h2x6-0-0--|
B---15-15-15-17-17-17-19-19-19-17-17-17h2--------------------------------------------|
G------------------------------------------------------------------------------------|
D------------------------------------------------------------------------------------|
A------------------------------------------------------------------------------------|
E------------------------------------------------------------------------------------|

E--------------------------------------------------10---10-10-10--12---12-12---10---10-10-10--|
B--3-3-3-3h5-3-2-0--3h5-3-2-0h2x6-------------------------------------------------------------|
G---------------------------------------------------------------------------------------------|
D---------------------------------------------------------------------------------------------|
A---------------------------------------------------------------------------------------------|
E---------------------------------------------------------------------------------------------|

E---9---9-9-9--10---10-10-10--12--12-12--10---10-10-10---9---9-9-9--10---10-10-10--|
B----------------------------------------------------------------------------------|
G----------------------------------------------------------------------------------|
D----------------------------------------------------------------------------------|
A----------------------------------------------------------------------------------|
E----------------------------------------------------------------------------------|

E---12---12-12-12----14---14-14--12-12-12-10-10-10-9-9-9--7h9--9h10--|
B--------------------------------------------------------------------|
G--------------------------------------------------------------------|
D--------------------------------------------------------------------|
A--------------------------------------------------------------------|
E--------------------------------------------------------------------|
Добавлено: 12.10.2013
Другие материалы по этой песне:
  • Аккорды и текст

Страница создана 12.10.2013
http://primanota.ru/romeo-santos/que-se-mueran-chords.htm
Привет, Гость.
Предлагаем пройти революционный курс по гитаре.
Подарок от PrimaNota.Ru, забирай!