PrimaNota.ru - самый крупный в мире бесплатный архив песенных текстов, аккордов, табулатур и нот


Romeo Santos - La Diabla - текст песни, таба, видео

Регистрация Запомнить меня
Войти через:  Facebook Google Twitter Vk Yandex Mail.ru

Romeo Santos - La Diabla - текст песни, таба, видео

Печатать
Просмотров: 90
                              La Diabla - Romeo Santos

Tabbed by: jdmv26
E-mail: jdmontoyavallejo@gmail.com 

Tuning: Standard 
Capo 5 

e|15/17-------13/15-------12/13-------10/12----------------13/15-------12/13-------10/12-------9/10-------------
B|------18-18-------17-17-------15-15-------13-13-12p13-13-------17-17-------15-15-------13-13------12-12-12h13-
G|--------------------------------------------------------------------------------------------------------------
D|--------------------------------------------------------------------------------------------------------------
A|--------------------------------------------------------------------------------------------------------------
E|--------------------------------------------------------------------------------------------------------------

e|17p0-0-15p0-0-13p0-0-12p0-0-12p0-0-13p0-0-12p0-0-12p0-0-13p0-0-12p0-0-12p0-0-10p0-0-8p0-0-7p0-----------------
B|--------------------------------------------------------------------------------------------------------------
G|--------------------------------------------------------------------------------------------------------------
D|--------------------------------------------------------------------------------------------------------------
A|--------------------------------------------------------------------------------------------------------------
E|--------------------------------------------------------------------------------------------------------------

e|7p0---7p0---6p0---6p0---7p0---7p0---6p0---6p0---8/10----------------------------------------------------------
B|----8-----8-----8-----8-----8-----8-----8-----8---------------------------------------------------------------
G|--------------------------------------------------------------------------------------------------------------
D|--------------------------------------------------------------------------------------------------------------
A|--------------------------------------------------------------------------------------------------------------
E|--------------------------------------------------------------------------------------------------------------

e|15p0-0-13p0-0-12p0-0-10p0-0-8p0-0-7p0-0-8p0-0-8p0-0-10p0-0-10p0-0-10/12---------------------------------------
B|--------------------------------------------------------------------------------------------------------------
G|------------------------------------------------------------------------14------------------------------------
D|--------------------------------------------------------------------------------------------------------------
A|--------------------------------------------------------------------------------------------------------------
E|--------------------------------------------------------------------------------------------------------------
                                                                                             
e|--------------------------------------------------------------------------------------------------------------
B|---------0-------0-------0---------------8-----8---------8-----8----------6-----6---------6-----6-------------
G|----0------0---0--0---0-----0-0---0----7-----7----7----7-----7-----7----7-----7----7----7-----7-----7---------
D|--7----7-----7-------7---7-------7---9-----9----9----9-----9-----9----8-----8----8----7-----7-----7-----------
A|7------------------7------------------------------------------------------------------------------------------
E|--------------------------------------------------------------------------------------------------------------

e|----------------------7h8-7p8-7p0-0-------7h8-7p8-7p0-0-------------------------------------------------------
B|------0------------0--------------------0-------------------8----10p8---------8-----10p8-----8---------------
G|----0-------8----0--------------------0-------------------7-----7-------7---7-----7-------7-------------------
D|--7------0----7--------------------7-------------------9------9-------9---9-----9-----------------------------
A|7-------9-----------------------------------------------------------------------------------------------------
E|--------------------------------------------------------------------------------------------------------------

e|----------------------12h13-12p13-12-0------------------------------------------------------------------------
B|----0h6p0-0---0---------------------------------------------6-----6----------6------6-------------------------
G|--7---------7---------------------------7/9----9/10---9/7-7----0-----0-----0----0-----0------0----------------
D|7------------------7--------------------9/10--10/12--10/9-9--7-----7-----7----7-----7------7------------------
A|-----------------8--------------------------------------------------------------------------------------------
E|--------------------------------------------------------------------------------------------------------------

e|----10p7-7-8p7---7---7----------------------------------------8p7---7p0---------------------------------------
B|--8-----------8---8---8/10-0-8----------0-------------------------8-------0-0-0-0-0-0-0-0---------------------
G|7---------------------------------9-------9----9-------9----9-------------0-0-0-0-0-0-0-0---------------------
D|--------------------------------10---10-----10------10---10---------------7-7-7-7-7-7-7-7---------------------
A|------------------------------10----------------10------------------------------------------------------------
E|--------------------------------------------------------------------------------------------------------------

e|--------------------------------------------------------------------------------------------------------------
B|--------------------------------------------------------------------------------------------------------------
G|------------10/12-------------------------------------------10/12----------9-9-----7-7----0-0-0-0-------------
D|-----7-9-10-------12----12-12----10-10----9-9-------9-10-12-------14/12-10------10-----10---------------------
A|8-10-----------------12-------12-------12------9-12-----------------------------------------------------------
E|--------------------------------------------------------------------------------------------------------------

SOLO (2:12 - 2:35)
e|---------------15/17-15-15/13-13-13-----------------15/17/15-15-15/13-13-13----------------13/15/13-13-13/12--
B|13-15-17-15-13----------------------13-15-17-15-13--------------------------13-15-17-15-13--------------------
G|--------------------------------------------------------------------------------------------------------------
D|--------------------------------------------------------------------------------------------------------------
A|--------------------------------------------------------------------------------------------------------------
E|--------------------------------------------------------------------------------------------------------------

e|12-12-12/10-10-12-10-10h12-10/8-8p10----------------15/17-15-15-13-13----------------15/17/15-15-15-13-13-----
B|-------------------------------------13-15-17-15-13-------------------15-17-18-17-15--------------------------
G|--------------------------------------------------------------------------------------------------------------
D|--------------------------------------------------------------------------------------------------------------
A|--------------------------------------------------------------------------------------------------------------
E|--------------------------------------------------------------------------------------------------------------

e|---------------13/15/13-13-13/12-12-12/10-10-12-10-10h12-10/8-8p10--------------------------------------------
B|13-15-17-15-13------------------------------------------------------------------------------------------------
G|--------------------------------------------------------------------------------------------------------------
D|--------------------------------------------------------------------------------------------------------------
A|--------------------------------------------------------------------------------------------------------------
E|--------------------------------------------------------------------------------------------------------------

e|13-12-13-12-12h13-12/10-10p12-10-13-12-13-12-12h13-12/10-10p12-10-12-10-12-10h12-10p12-10/8-8-8p10-8/7--------
B|--------------------------------------------------------------------------------------------------------------
G|--------------------------------------------------------------------------------------------------------------
D|--------------------------------------------------------------------------------------------------------------
A|--------------------------------------------------------------------------------------------------------------
E|--------------------------------------------------------------------------------------------------------------

e|--------------------------------------------------------------------------------------------------------------
B|------------------------------------------8-----8-----8---------8-----8---------------------------------------
G|----------------------------------------7-----7-----7-----7---7-----7----7------------------------------------
D|--7-10-9-9p10-7-9----7-10-9-9p10-7-9--9-----9-----9-----9---9-----9-------------------------------------------
A|8-----------------8-------------------------------------------------------------------------------------------
E|--------------------------------------------------------------------------------------------------------------

e|--------------------------------------------------------------------------------------------------------------
B|-----------0-----------------------------------0-------------------------0-0-0-0-0-0--------------------------
G|------9------9----9-----------9----9-------0-------0---0--------0---0----0-0-0-0-0-0--------------------------
D|---10---10-----10---10-----10---10-------7---7-------7---7----7---7---7--7-7-7-7-7-7--------------------------
A|10----------------------10-------------7-------------------7--------------------------------------------------
E|--------------------------------------------------------------------------------------------------------------

Добавлено: 09.05.2016
Другие материалы по этой песне:

Страница создана 25.02.2014
http://primanota.ru/romeo-santos/la-diabla-chords.htm
Привет, Гость.
Предлагаем пройти революционный курс по гитаре.
Подарок от PrimaNota.Ru, забирай!