PrimaNota.ru - самый крупный в мире бесплатный архив песенных текстов, аккордов, табулатур и нот


Romantica - Quiver - таба, видео

Регистрация Запомнить меня
Войти через:  Facebook Google Twitter Vk Yandex Mail.ru

Romantica - Quiver - таба, видео

Печатать
Просмотров: 91
QUIVER - Romantica

Tabbed by: Squirrlymanjr

standard tune

e|--12-----12--|--11-----11--|--9------9---|--7------7---|
B|--12-----12--|--12-----12--|--10-----10--|--9------9---|
G|--13-----13--|--11-----11--|--9------9---|--9------9---|
D|-------------|-------------|-------------|-------------|
A|-------------|-------------|-------------|-------------|
E|-------------|-------------|-------------|-------------|
   I saw you on the dance floor with a quiver in your knee
e|--11-----11--|--9------9---|--9------9---|--11-----11--|
B|--12-----12--|--9------9---|--10-----10--|--12-----12--|
G|--13-----13--|--9------9---|--9------9---|--11-----11--|
D|-------------|-------------|-------------|-------------|
A|-------------|-------------|-------------|-------------|
E|-------------|-------------|-------------|-------------|
    All the beautiful girls are dancing to those, precious melodies
e|--12-----12--|--11-----11--|--9------9---|-------------|
B|--12-----12--|--12-----12--|--10-----10--|--11-----11--|
G|--13-----13--|--13-----13--|--9------9---|--11-----11--|
D|-------------|-------------|-------------|--11-----11--|
A|-------------|-------------|-------------|-------------|
E|-------------|-------------|-------------|-------------|
    You were like a wildflower, honey at the mercy of the river and breeze
e|--12-----12--|--11-----11--|--9------9---|--12-----12--|
B|--12-----12--|--12-----12--|--10-----10--|--12-----12--|
G|--13-----13--|--11-----11--|--9------9---|--13-----13--|
D|-------------|-------------|-------------|-------------|
A|-------------|-------------|-------------|-------------|
E|-------------|-------------|-------------|-------------|
    I wanna take that quiver, and put it all over me

 chorus
   (repeat 4 times)                         1st 2nd & 3rd      4th time
e|--12---12-12-|--11---11-11-|--9----9--9--|--7----7--7--||--11---------|
B|--14---14-14-|--12---12-12-|--10---10-10-|--9----9--9--||--12---------|
G|--13---13-13-|--11---11-12-|--9----9--9--|--9----9--9-*||--11---------|
D|-------------|-------------|-------------|------------*||-------------|
A|-------------|-------------|-------------|-------------||-------------|
E|-------------|-------------|-------------|-------------||-------------|
    You were like a wildflower, and something happened to me
    Some kind of angel power, gone and made me believe
    Just like an old time movie, where something makes you cry
    Even though you know it's just a story, and nobody ever died.

Repeat beginning

chorus again new lyrics

    You were like a wildflower, and i was only 17
    I was looking for a higher power, and you were looking down on me
    Just like the holy angel, on top of the tree
    I was looking for some kind of savior, you were looking down on me

play chorus again and sing first chorus
Добавлено: 06.08.2013
Вам также может быть интересно:
Другие материалы по этой песне:
  • Аккорды и текст

Страница создана 06.08.2013
http://primanota.ru/romantica/quiver-chords.htm
Привет, Гость.
Предлагаем пройти революционный курс по гитаре.
Подарок от PrimaNota.Ru, забирай!