PrimaNota.ru - самый крупный в мире бесплатный архив песенных текстов, аккордов, табулатур и нот


Rolo Tomassi - Ex Luna Scientia - таба, видео

Регистрация Запомнить меня
Войти через:  Facebook Google Twitter Vk Yandex Mail.ru

Rolo Tomassi - Ex Luna Scientia - таба, видео

Печатать
Просмотров: 95
----------------------------------------------------------------------------
                             Ex Luna Scienta - Rolo Tomassi
----------------------------------------------------------------------------
Tabbed by:JaaaayDeeee
E-mail:jdgilbert@ntlworld.com

Tuning: Drop D

e|-12--12--12--12--12--12--12--12-----------------12--12--12--------------|
B|------------------------------------------------------------------------|
G|-10--10--10--10--10--10--10--10-----------------10--10--10--------------|
D|-9---9---9---9---9---9---9---9------------------9---9---9---------------|
A|------------------------------------------1------------------------1----|
D|--------------------------------0-1-4-0-0---4-1----------0-1-4-0-0---4-1|


|-12-12-12----------------------------------------12-12-12---------------|
|------------------------------------------------------------------------|
|-10-10-10----------------------------------------10-10-10---------------|
|-9--9--9-----------------------------0h3h6-------9--9--9----------------|
|--------------------1----------0h1h4-------0h3h6-------------------1----|
|----------0-1-4-0-0---4-1-0h1h4--------------------------0-1-4-0-0---4-1|


|-12-12-12-----------------12-12-12-------------------------------------|
|-----------------------------------------------------------------------|
|-10-10-10-----------------10-10-10-------------------------------------|
|-9--9--9------------------9--9--9----------------------------0h3h6-----|
|--------------------1------------------------1----------0h1h4-----0h3h6|
|----------0-1-4-0-0---4-1----------0-1-4-0-0---4-1-0h1h4---------------|

|-0-0-0-0-0-0-0-0-0-0-0-0-0-0-0-0-0-0-0-0-0-0-0-0-0-0-0-0-0-0-0-0-|
|-6-6-6-6-6-6-6-6-6-6-6-6-6-6-6-6-5-5-5-5-5-5-5-5-5-5-5-5-5-5-5-5-|
|-7-7-7-7-7-7-7-7-7-7-7-7-7-7-7-7-6-6-6-6-6-6-6-6-6-6-6-6-6-6-6-6-|
|-----------------------------------------------------------------|
|-----------------------------------------------------------------|
|-----------------------------------------------------------------|

|-9-9-9-9-9-9-9-9-9-9-9-9-9-9-9-9|
|-8-8-8-8-8-8-8-8-8-8-8-8-8-8-8-8|
|-9-9-9-9-9-9-9-9-9-9-9-9-9-9-9-9|
|--------------------------------|
|--------------------------------|
|--------------------------------|

|-8--8--8--8--8--8--8--8--8--8--8--8--8--8--8--|
|-11-11-11-11-11-11-11-11-11-11-11-11-11-11-11-|
|-12-12-12-12-12-12-12-12-12-12-12-12-12-12-12-|
|----------------------------------------------|
|----------------------------------------------|
|----------------------------------------------|

|-----0-----0--------0-----0-------12----12----15-15-15-15-15-15-15-15-|
|---6-----6---6----5-----5---5---8-----8----8--11-11-11-11-11-11-11-11-|
|-7-----7--------6-----6-------9-----9---------12-12-12-12-12-12-12-12-|
|----------------------------------------------------------------------|
|----------------------------------------------------------------------|
|----------------------------------------------------------------------|

|-12-12-12------------------12-12--12-------------------12-12-12--|
|-----------------------------------------------------------------|
|-10-10-10------------------10-10--10-------------------10-10-10--|
|-9--9--9-------------------9--9---9--------------------9--9--9---|
|--------------------1----------------------------1---------------|
|----------0-1-4-0-0---4-1--------------0-1-4-0-0---4-1-----------|

|----------------------------------------|
|----------------------------------------|
|----------------------------------------|
|---------------------------0h3h6--------|
|-----------1----------0h1h4------0h3h6--|
|-0-1-4-0-0---4-1-0h1h4------------------|

|-12-12-12------------------12-12-12--------------------12-12-12--|
|-----------------------------------------------------------------|
|-10-10-10------------------10-10-10--------------------10-10-10--|
|-9--9--9-------------------9--9--9---------------------9--9--9---|
|---------------------1----------------------------1--------------|
|-----------0-1-4-0-0---4-1--------------0-1-4-0-0---4-1----------|

|------------------------------------------|
|------------------------------------------|
|------------------------------------------|
|------------------------------0h3h6-------|
|-----------1------------0h1h4-------03h6--|
|-0-1-4-0-0---4-1--0h1h4-------------------|

|-0-0-0-0-0-0-0-0-0-0-0-0-0-0-0-0-0-0-0-0-0-0-0-0-0-0-0-0-0-0-0-0-|
|-6-6-6-6-6-6-6-6-6-6-6-6-6-6-6-6-5-5-5-5-5-5-5-5-5-5-5-5-5-5-5-5-|
|-7-7-7-7-7-7-7-7-7-7-7-7-7-7-7-7-6-6-6-6-6-6-6-6-6-6-6-6-6-6-6-6-|
|-----------------------------------------------------------------|
|-----------------------------------------------------------------|
|-----------------------------------------------------------------|

|-9-9-9-9-9-9-9-9-9-9-9-9-9-9-9-9|
|-8-8-8-8-8-8-8-8-8-8-8-8-8-8-8-8|
|-9-9-9-9-9-9-9-9-9-9-9-9-9-9-9-9|
|--------------------------------|
|--------------------------------|
|--------------------------------|

|-8--8--8--8--8--8--8--8--8--8--8--8--8--8--8--|
|-11-11-11-11-11-11-11-11-11-11-11-11-11-11-11-|
|-12-12-12-12-12-12-12-12-12-12-12-12-12-12-12-|
|----------------------------------------------|
|----------------------------------------------|
|----------------------------------------------|

|-----0-----0--------0-----0-------12----12----15-15-15-15-15-15-15-15-|
|---6-----6---6----5-----5---5---8-----8----8--11-11-11-11-11-11-11-11-|
|-7-----7--------6-----6-------9-----9---------12-12-12-12-12-12-12-12-|
|----------------------------------------------------------------------|
|----------------------------------------------------------------------|
|----------------------------------------------------------------------|

|-15-15-|
|-11-11-|
|-12-12-|
|-------|
|-------|
|-------|


quiet part, not sure here, use delay

|--------------------------------------------| repeat x times
|-6-5-------5-----6-5-------5----------------|
|-----5---------------5----------------------|
|-------0-7-------------0-7------------------|
|-------------0-----------------0------------|
|---------------------------------5-3-2-0----|

before the heavy part kicks in these two notes are picked over and overrr

|----17--|
|-15-----|
|--------|
|--------|
|--------|
|--------|

ugh not sure about this part either

|-----------|
|-----------|
|-----------|
|-----------|
|-0---------|
|---5-3-2-0-|

|-------------------------------------------------------------------|
|-------------------------------------------------------------------|
|-------------------------------------------------------------------|
|-------------------------------------------------------------------|
|-0h3h5-0---------0h3h5-0----------0h3h5-0----------0h3h5-0-------1-|
|---------5-3-2-0---------5-3-2-0----------5-3-2-0----------5-3-2---|


|---------------------------------|
|---------------------------------|
|---------------------------------|
|---------------------------------|
|-0h1h3-0-------1-0h1h3-0-------1-|
|---------5-3-2-----------5-3-2---|

|-------------------------------------|
|-------------------------------------|
|-------------------------------------|
|-------------------------------------|
|-0h1h3-0---------1-0h1h3-0-----------|
|----------5-3-2-------------5-3-2-0--| repeat x times

I realise this isn't entirely accurate if anyone can help me work out the last part 
please leave a comment/correction
Добавлено: 06.12.2013
Другие материалы по этой песне:
  • Аккорды и текст

Страница создана 06.12.2013
http://primanota.ru/rolo-tomassi/ex-luna-scientia-chords.htm
Привет, Гость.
Предлагаем пройти революционный курс по гитаре.
Подарок от PrimaNota.Ru, забирай!