PrimaNota.ru - самый крупный в мире бесплатный архив песенных текстов, аккордов, табулатур и нот


Rollins Band - Hot Animal Machine 1 - текст песни, таба, видео

Регистрация Запомнить меня
Войти через:  Facebook Google Twitter Vk Yandex Mail.ru

Rollins Band - Hot Animal Machine 1 - текст песни, таба, видео

Печатать
Просмотров: 88
Henry Rollins/Rollins Band

" Hot animal machine 1 " 

album: Hot animal machine
year: 1987

translated by: Michiel Hautus, january 02, The Netherlands
(more tabs: http://ourworld-top.cs.com/HAUTUS/index.htm)

explanation signs:

^7^ = natural harmonic

RIFF A

E ---------------------------------|---------------------------------|
B ---------------------------------|---------------------------------|
G ---------------------------------|---------------------------------|
D -2-2-2--1-2-2-2--1-2-2-2--1-2----|---------------------------------|  
A -4-4-4--3-4-4-4--3-4-4-4--3-4-2--|-1-1-1-0-1-1-1-0-1-1-1-0-1-1-1-0-|      
E ------------------------------4--|-3-3-3-2-3-3-3-2-3-3-3-2-3-3-3-2-|

RIFF B

E -------0-------0---|-------0-------0---|
B -------5-------5---|-------5-------5---|
G -------------------|-------------------|
D -------------------|-7-7-7---7-7-7---7-|  
A -8-8-8---8-8-8---8-|-5-5-5---5-5-5---5-|      
E -6-6-6---6-6-6---6-|-------------------|

variation at second bar:

E ------^12^-----^12^--|
B ---------------------|
G ---------------------|
D -7-7-7----7-7-7----7-|    
A -5-5-5----5-5-5----5-|        
E ---------------------|

     
Добавлено: 27.09.2013
Другие материалы по этой песне:
  • Аккорды и текст

Страница создана 27.06.2012
http://primanota.ru/rollins-band/hot-animal-machine-1-chords.htm
Привет, Гость.
Предлагаем пройти революционный курс по гитаре.
Подарок от PrimaNota.Ru, забирай!