PrimaNota.ru - самый крупный в мире бесплатный архив песенных текстов, аккордов, табулатур и нот


Rolling Stones - Neighbours - текст песни, таба, бас-таба, видео

Регистрация Запомнить меня
Войти через:  Facebook Google Twitter Vk Yandex Mail.ru

Rolling Stones - Neighbours - текст песни, таба, бас-таба, видео

Печатать
Просмотров: 108
NEIGHBOURS

As recorded by The Rolling Stones
(From the 1981 Album TATTOO YOU)

Words and Music by Mick Jagger & Keith Richards

Transcribed by Slowhand


Gtr I (E A D G B E) - 'Keith Richards - Electric Guitar'
Gtr II (E A D G B E) - 'Ron Wood - Electric Guitar'
Gtr III (E A D G B E) - 'Ron Wood - Electric Guitar'


 Intro                            1st Verse
  Q=164
  N.C.                             E
 4/4
  Gtr I
                                   PM-----------------------------|
  W          E E   +q   E e e e    Q  E E E E E E   E E E E E E E E
|----------|--------------------||----------------|------------------|
|----------|---3---(3)----2-2-0-||----------------|------------------|
|----------|---2b4-(2)----2-2-0-||----------------|------------------|
|----------|--------------------||----------------|------------------|
|----------|--------------------||-2----2-2-2---x-|-2-2---2-2-2---x--|
|----------|--------------------||-0----0-0-0---x-|-0-0---0-0-0---x--|


  B                                  A
  Q  E E E E E E   E E E E E E E E   E E E e E E E e   E E E e E E E e
|----------------|-----------------|-----------------|------------------|
|----------------|-----------------|-----------------|------------------|
|----------------|-----------------|-----------------|------------------|
|----------------|-----------------|-----------------|------------------|
|-9----9-9-9-----|-------9-9-9-9-7-|-6s7-x-7-6s7-x-7-|-6s7-x-7-6s7-x-7--|
|-7----7-7-7-7-7-|-7-7---7-7-7-7-5-|-4s5-x-5-4s5-x-5-|-4s5-x-5-4s5-x-5--|


  E
  PM-----------|
  E E Q  E E E E   q    E E   +q   E    +E
|----------------|--------------------------|
|----------------|-3------3---(3)--3----(3)-|
|----------------|-2b3----2b4-(2)--2pb4r(2)-|
|----------------|--------------------------|
|-2-2-2--2-2-2-2-|--------------------------|
|-0-0-0--0-0-0-0-|--------------------------|


  PM----------------------|   PM
  E E E E E E E E   E E E E E E Q
|-----------------|------------------|
|-----------------|------------------|
|-----------------|------------------|
|-----------------|-------------x/---|
|-2-2-x-2-2-2-2-x-|-2-2---2---2-x/---|
|-0-0-x-0-0-0-0-x-|-0-0---0---0-x/---|


  B               Bsus4  B     A
  W          Q.   E +Q   E E   W
|----------|-----------------|------|
|----------|-----------------|------|
|----------|-8----9-(9)------|------|
|----------|-9----9-(9)------|------|
|-9--------|-9----9-(9)--9s8-|-7----|
|-7--------|-7----7-(7)--7s6-|-5----|


  Q.   E +Q   Q    Q  E    +E  +Q    Q    E    +E     +E  +E    +E  e E E
|----------------|----------------------|---------------------------------||
|----------------|-------------------3--|---------------------------3-3---||
|----------------|----2b4==(2)-(2)r-----|-2pb4r(2)b4==(2)r(2)b4-(2)-----4-||
|----------------|----------------------|---------------------------------||
|-7----7-(7)--7--|----------------------|---------------------------------||
|-5----5-(5)--5--|----------------------|---------------------------------||


 2nd Verse
  E
  PM----------------------------------|
  Q  E E  E  E  E E   E E  E E E E  E  E
|-------------------|---------------------|
|-------------------|---------------------|
|-------------------|---------------------|
|-------------------|---------------------|
|-2----2--2--2----x-|-2-2----2-2-2-----x--|
|-0----0--0--0----x-|-0-0----0-0-0-----x--|
|
| Gtr II
| Q  Q   +E  E  q     Q    q   Q    E  E
|-------------------|---------------------|
|-------------------|---------------------|
|----9---(9)--------|-9-------------------|
|----9---(9)-9-11---|-9---11-------11-----|
|-7--7---(7)-7--7---|-7----7--------7-(9)-|
|-------------------|-----------------(7)-|


  B
  Q  E E E E  E  E   E E  E E E E  E  E
|------------------|---------------------|
|------------------|---------------------|
|------------------|---------------------|
|------------------|---------------------|
|-9----9-9-9-------|--------9-9-9--9--7--|
|-7----7-7-7--7--7-|-7-7----7-7-7--7--5--|
|
| Q  q   E E  q      Q    q   Q    q
|------------------|---------------------|
|------------------|---------------------|
|------------------|--------------(9)----|
|----9-------------|---------------9-----|
|-9--9-----9h11----|-9---11---9----9-----|
|-7--7-----7-(7)---|-7----7---7----7-----|


  A                                   E
                                      PM         PM
  E E E e E E E e   E E E e E E E e   Q    E E E E   Q    q    E E E  E  e  E
|-----------------|-----------------|-------------------|---------------------|
|-----------------|-----------------|-------------------|---------------------|
|-----------------|-----------------|-------------------|--------1------------|
|-----------------|-----------------|------x-0h2-----0--|-2----0---2-----0--0-|
|-6s7-x-7-6s7-x-7-|-6s7-x-7-6s7-x-7-|-------------------|-2-----------2-------|
|-4s5-x-5-4s5-x-5-|-4s5-x-5-4s5-x-5-|-0----------0------|---------------------|
|
|                                     PM
| E E q   Q   q     Q   q   E E q     Q  a q   E E a q    Q  a E E E  e  Q
|-----------------|-----------------|-------------------|------------(0)------|
|-----------------|-----------------|-------------------|------------(0)------|
|-----------------|-----------------|----4s6-------4s6--|----4s6---------7\---|
|-----------------|-----------------|-------------------|--------6s7-----7\---|
|-7-7-9---7---9---|-7---9---7-7-9---|-------------------|-2--------------7\---|
|-5-5-5---5---5---|-5---5---5-5-5---|-0--------0-0------|-0-------------------|


  PM------------------------|    PM
  E E E E E E  E E   E E  E  E E E  Q
|------------------|--------------------|
|------------------|--------------------|
|------------------|--------------------|
|------------------|----------------x/--|
|-2-2-x-2-2-2--2-x-|-2-2-----2---2--x/--|
|-0-0-x-0-0-0--0-x-|-0-0-----0---0--x/--|
|
| Q   q   E E  E E   Q    E  E Q    Q
|------------------|--------------------|
|-----9------------|-9------------------|
|-----9-----9------|-9------------------|
|-----9-----9-11---|-9---11s10-9---11---|
|-----7--------7-7-|-7----7----7----7---|
|------------------|--------------------|


  B                        Bsus4   B
  W                Q.      E +Q    E E
|----------------|----------------------|
|----------------|----------------------|
|----------------|-8-------9-(9)--------|
|----------------|-9-------9-(9)--------|
|-9--------------|-9-------9-(9)---9s8--|
|-7--------------|-7-------7-(7)---7s6--|
|
| PM|    PM|
| E E q  E E  q    E  E  q    E  E Q
|----------------|----------------------|
|----------------|----------------------|
|----------------|-9---------------9----|
|----------------|-9---------------9----|
|-----9----9-11--|-9--9-11----9--9-9----|
|-7-7-7--7-7--7--|-7--7--7----7--7------|


  A                              E
  W             W                Q   Q   a Q.      E   +Q     Q   +E  Q.
|-------------|----------------|-----------0-------0-|-(0)----0---(0)-0-------||
|-------------|----------------|---------3s5-------5-|-(5)----5---(5)-5-------||
|-------------|----------------|---------------------|------------------------||
|-------------|----------------|-9-------------------|------------------------||
|-------------|----------------|-7-------------------|------------------------||
|-------------|----------------|---------------------|------------------------||
|
| Q  q  Q  q    Q  E E Q  a Q    Q   e E   E  E  e E    E  E  E E  Q     Q
|-------------|----------------|---------------------|------------------------||
|-------------|----------------|---------------------|------------------------||
|-------------|--------6-------|-9-----x------9------|-------------1----------||
|-------------|--------7-------|-9--11-x------9-11p9-|--9--9h11-7--2-----4/---||
|-7--9--7-----|-7--9-x-7-------|-7---7-x---7-----7---|--7--7-------2-----2/---||
|-5--5--5--8--|-5--5-x-5--5s7--|---------------------|-------------0----------||


 Pre-Chorus
  $
  C#m                                B
  Gtrs I, III
  Q  Q  +E  E E E   Q  E E Q   E E   Q   Q   E E Q     Q  E E +E  E E E
|-4--4--(4)-4-4-4-|-4--4-4-4---4-4-|-----------------|-------------------|
|-5--5--(5)-5-5-5-|-5--5-5-5---5-5-|-4---4---4-4-4---|-4--4-4-(4)-4-4-4--|
|-6--6--(6)-6-6-6-|-6--6-6-6---6-6-|-4---4---4-4-4---|-4--4-4-(4)-4-4-4--|
|-6--6--(6)-6-6-6-|-6--6-6-6---6-6-|-4---4---4-4-4---|-4--4-4-(4)-4-4-4--|
|-4--4--(4)-4-4-4-|-4--4-4-4---4-4-|-2---2---2-2-2---|-2--2-2-(2)-2-2-2--|
|-----------------|----------------|-----------------|-------------------|
|
| Q  q   E  E E E   Q  E E E E q     E E E E E E E E   Q  E E  E  E E E
|----4------4---4-|-4--------------|-----------------|-------------------|
|----5------5---5-|-5----5---5-----|-----------5-----|-4-------4---------|
|----6------6---6-|-6--x-6---6-----|-4-4-------6-----|-4-------4------x--|
|----6------6-----|-6--x-6---6-6---|-4-4-6-4-------4-|-4--6-4--4--6-4-x--|
|-4--4------4-----|-4--x-4---4-4---|-2-2-2-2-------2-|-2--2-2--2--2-2-x--|
|-----------------|----------------|-----------------|-------------------|


  E       D#E                        A
  Q   E E E E  E E   Q   E E  Q    E E
|------------------|-------------------|
|-9---9-9-8s9------|-9--------9----x---|
|-9---9-9-8s9------|-9--------9----x-6-|
|-9---9-9-8s9-11-9-|-9--11-9--9----x-7-|
|-7---7-7-6s7--7-7-|-7---7-7--7----x-7-|
|------------------|-----------------5-|
|
| PM|     PM     PM
| E E q   E E  E E   Q   E E +E  E E E
|------------------|-------------------|
|-----9-----9------|-9-----9-(9)-9-x-x-|
|-----9-----9------|-9-----9-(9)-9-x-x-|
|-----9-----9------|-9--11-9-(9)-9-x-x-|
|-7-7-7---7-7----7-|-----7-7-(7)-------|
|------------------|-------------------|


  Q.    E Q   Q     E E E E  Q    E E
|-5-----5-5---5---|---------------------||
|-5-----5-5---5---|---------------------||
|-6-----6-6---6---|---------------------||
|-7-----7-7---7---|---------------------||
|-7-----7-7---7---|-7-7-9-7--7----9-7/--||
|-5-----5-5---5---|-5-5-5-5--5----5-5/--||
|
|             PM|
| Q   q   E E E E   E E E E +E  E E E
|-----------------|---------------------||
|-----------------|---------------------||
|-6---------6-----|-6-------------------||
|-7---7-----7-----|-7---------------8s==||
|-7---7-----7-----|-7-7-9-7-(7)-9-9-6s==||
|-5---5-----5-5-5-|-5-5-5-5-(5)-5-5-----||


 Chorus
  E                                  B
  q  Q   E E  E  E   Q   E E +Q    E E
|------------------|-------------------|
|------------------|-9-----9-(9)-------|
|------------------|-9-----9-(9)-------|
|-9------9-9-11--9-|-9--11-9-(9)-------|
|-7------7-7--7--7-|-7---7-7-(7)---7s9-|
|------------------|---------------5s7-|
|
| Q  E E E E  q      Q   q    Q    q
|------------------|-------------------|
|----9-----9-------|-------------------|
|----9-----9-(9)---|-9-----------------|
|-9--9-9-9-9h11----|-9--11----9---11---|
|-7--7-7-7-7-------|-7---7----7----7---|
|------------------|-------------------|


                       Bsus4
  H       +E  E  Q     Q    E E +E  E  E E
|--------------------|----------------------|
|--------------------|----------------------|
|--------------------|-9----x-9-(9)---------|
|--------------------|-9----x-9-(9)---------|
|-9-------(9)-9--9---|-9----x-9-(9)-9-11-x--|
|-7-------(7)-7--7---|-7----x-7-(7)-7--7-x--|
|
|       PM         PM
| Q   e E  Q     e E   E E  E E  E  E  E E
|--------------------|----------------------|
|--------------------|----------------------|
|--------------------|----------------------|
|--------------------|----------------------|
|-9--11----9----11---|-9---11-9-----9-11----|
|-7---7-7--7-----7-7-|-7-7--7-7--7--7--7-5--|


  A
  Q  E E +Q    Q    +E  Q.    Q   E E
|----x-5-(5)---5--|-(5)-5-----5---5-5-|
|----x-5-(5)---5--|-(5)-5-----5---5-5-|
|----x-6-(6)---6--|-(6)-6-----6---6-6-|
|----x-7-(7)---7--|-(7)-7-----7---7-7-|
|-7--x-7-(7)---7--|-(7)-7-----7---7-7-|
|-5--x-5-(5)---5--|-(5)-5-----5---5-5-|
|
| Q  q    E  E q     Q     q  E E E E
|-----------------|-------------------|
|-----------------|-------------------|
|-----------------|-------------------|
|-----------------|-------------------|
|-7--9----7--7-9--|--7-----9--7-7-9-7-|
|-5--5----5--5-5--|--5-----5--5-5-5-5-|


             To Coda
  E                       EsuE4
  E E  E E Q    E E    Q   E E Q     Q
|--------------------|-------------------||
|----------9----8s9--|-9--10---9-----9---||
|----------9----8s9--|-9---9---9-----9---||
|---9-11-x-9----8s9--|-9---9-9-9-----9---||
|---7--7-x-7----6s7--|-7---7-7-7-----7---||
|--------------------|-------------------||
|
| Q    E E E E  q      Q   E E Q  a  q
|--------------------|-------------------||
|-----10-9---9-10----|-------------------||
|------9-9---9--9----|-9-------9---------||
|-9----9-9---9--9----|-9--11-9-9--9h11---||
|-7----7-7-7-7--7----|-7---7-7-7-----7---||
|--------------------|-------------------||


 Guitar Solo
  E
   Q          E  E       E   E  E E   E E  E  E       E  E  E E
|-----------------------------------|---------------------------|
|-----------------------------------|---------------------------|
|-----------------------------------|---------------------------|
|--9---------11--9-------9---9-11-9-|-9-9-11--9-------9--9-11-9-|
|--7----------7--7-------7---7--7-7-|-7-7--7--7-------7--7--7-7-|
|-----------------------------------|---------------------------|
|
|  E     +E   E  E      +E   E  e E   E E  E  E      +E  E  E E
|-----------------------------------|---------------------------|
|---------------------------------0-|---9-----------------------|
|-11b12r(11)--9-11b13==(11)r11--9-x-|-9-9-11-11pb12r(11)-9-11-9-|
|-11b12r(11)--9-11b13==(11)r11--9---|-9-9-11-11pb12r(11)-9-11-9-|
|-----------------------------------|---------------------------|
|-----------------------------------|---------------------------|


  B
  Q    E E E E  E E     E E  q    E  E  E  E
|-------------------|------------------------|
|-------------------|------------------------|
|-------------------|------------------------|
|-------------------|------------------------|
|-9---11-9-9-9-11-9-|---9-9-11----9--x-11--9-|
|-7----7-7-7-7--7-7-|---7-7--7----7--x--7--7-|
|
| E E  e E E E  E E   a E E  E E  E  E  E  E
|------7---7-7----7-|-7h9----9-9s11-11----11-|
|------7-7-7-7--7-7-|------------------------|
|-6s8----8------8-8-|-----9----9s11----11----|
|-------------------|------------------------|
|-------------------|------------------------|
|-------------------|------------------------|


  A
   Q   E E Q   E E   Q   E E Q   E  E
|------------------|------------------|
|------------------|------------------|
|------------------|------------------|
|------------------|------------------|
|--7---9-7-7---9-7-|-7---9-7-7---9--x-|
|--5---5-5-5---5-5-|-5---5-5-5---5--x-|
|
|  E E Q   E E E E   E E E E E E E  E
|-11s9-9-----9---9-|---9---9-9-9------|
|------------------|-------------x\---|
|-11s9-----9---9---|-9---9---9---x\---|
|------------------|-------------x\---|
|------------------|------------------|
|------------------|----------------0-|


  E
  Q    E E  E  E  E   E   Q        E E    +E   E E   E
|-----------------------|------------------------------|
|------9-9--------------|------------------------------|
|------9-9--------------|------------------------------|
|------9-9-----9-11---9-|-9-------11-9----(9)--9-x---9-|
|------7-7-----7--7---7-|-7--------7-7----(7)--7-x---7-|
|-0---------------------|------------------------------|
|
| Q  a E E +E  E  E   E   E   +E   e E    +E   E Q
|-----------------------|------------------------------|
|---------------------3-|----------3-3----(3)--3-3-----|
|-----------------2b4---|-2b4-(2)----2b4==(2)r---2b4---|
|--------------2--------|------------------------------|
|----0h2-2-(2)----------|------------------------------|
|-0---------------------|------------------------------|


  E
     Q      E E E E  E E   E  E       E   E       E  E  E E
|------------------------|----------------------------------|
|------------------------|----------------------------------|
|------------------------|----------------------------------|
|----9-----11-9-9-9-11-9-|-9--9------11---9-------9--9-11-9-|
|----7------7-7-7-7--7-7-|-7--7-------7---7-------7--7--7-7-|
|------------------------|----------------------------------|
|
| a  E E a  Q   Q    E E   E  E      +E   E      +E  E  E E
|------------------------|----------------------------------|
|-----------9----------9-|-9--------------------------------|
|-----------9---9------9-|-9-11pb12r(11)-11pb12r(11)-9-11-9-|
|------9-9h11---9------9-|-9-11pb12r(11)-11pb12r(11)-9-11-9-|
|-9s11--------------11---|----------------------------------|
|------------------------|----------------------------------|


  B
  Q     E  E   E  E   E E    E  E  q      E   E  E E
|-------------------------|---------------------------|
|-------------------------|---------------------------|
|-------------------------|---------------------------|
|-------------------------|---------------------------|
|-9----11--9---9--9--11-9-|--9--9-11------9---x-11-9--|
|-7-----7--7---7--7---7-7-|--7--7--7------7---x--7-7--|
|
| E  Q     E  +Q      Q      E  E  E  E  +E   E  E E
|---------11-(11)---^11---|-11-12-12-12-(12)-12----0--|
|-------------------------|------------------------0--|
|-9s11--------------^11---|-11---------------11-11----|
|-------------------------|---------------------------|
|-------------------------|---------------------------|
|-------------------------|---------------------------|


  A
    Q   E  E   Q      E  E     Q      E  E  Q    E E
|--------------------------|-------------------------|
|--------------------------|-------------------------|
|--------------------------|-------------------------|
|--------------------------|-------------------------|
|---7---9--7---7------9--7-|---7------9--7--7----9-x-|
|---5---5--5---5------5--5-|---5------5--5--5----5-x-|
|
|   Q.     E  +E   E  E  E    +E   E  E  E  E  E E E
|--------------------------|------17----17-17----0---|
|-/14-----14-(14)-14----14-|-(14)-17----17-17-14-0-7s|
|-/14-----14-(14)-14----14-|-(14)----14-------14---8s|
|-/14-----14-(14)----14----|---------14--------------|
|--------------------------|-------------------------|
|--------------------------|-------------------------|


                                    D.S. al Coda
  E
   Q     E  E  E  E   E E    Q   E  E +E  E E E
|-------------------------|----------------------||
|--------9--9-------------|----------------------||
|--------9--9-------------|----------------------||
|--------9--9-----9--11-9-|--9--11--9-(9)-9-x-9--||
|--------7--7-----7---7-7-|--7---7--7-(7)-7-x-7--||
|--0----------------------|----------------------||
|
|  E  E  E  E  E  Q.         Q   E  E  Q    Q
|----12-12-12-12-12-------|-12--12-12-12\--------||
|-12-12-12-12-12-12-------|-12--12-12-12\--------||
|-13----------------------|----------------------||
|-------------------------|----------------------||
|-------------------------|----------------------||
|-------------------------|----------------------||


                        Interlude
  &
  E                      E
  Gtr III             Gtrs II, III
  Q    E  E Q   Q        q  Q  H        H      Q    E E
|---------------------||--------------|-----------------||
|-9---10-10-9---9-----||-9------------|-----------------||
|-9----9--9-9---9-----||-9------------|-----------------||
|-9----9--9-9---9-----||-9------------|------------11-9-||
|-7----7--7-7---7-----||-7------------|-------------7-7-||
|---------------------||--------------|-----------------||
|
| Gtr II              Gtr I
|                              PM|      PM
| E E  Q    Q   E  E     q  Q  E E Q    Q  E E E E  q
|---------------------||--------------|-----------------||
|-9-------------------||-9------------|-----------------||
|-9-9--9--------------||-9------------|-----------------||
|-9-9--9----9---9-(9)-||-9------------|-----------------||
|---7--7----7--11p=9--||-7-----2-2----|-2--x-2---2--2---||
|---------------------||-------0------|-0--x-0---0--0---||


   Saxophone Solo
    E                                      B
    Gtrs II, III
    Q   E E E E  E E   E E  E E E E  E E   Q   E E E E  E E
||-------------------|-------------------|------------------|
||o------------------|-------------------|------------------|
||-------------------|-------------------|------------------|
||--9--11-9-9-9-11-9-|-9-9-11-9-9-9-11-9-|------------------|
||o-7---7-7-7-7--7-7-|-7-7--7-7-7-7--7-7-|-9--11-9-9-9-11-9-|
||-------------------|-------------------|-7---7-7-7-7--7-7-|


                     A
  E E  q  E E  E E   Q  E E Q  E E   Q  E E Q  E E
|------------------|---------------|---------------|
|------------------|---------------|---------------|
|------------------|---------------|---------------|
|------------------|---------------|---------------|
|-9-9-11--9-x-11-9-|-7--9-7-7--9-7-|-7--9-7-7--9-x-|
|-7-7--7--7-x--7-7-|-5--5-5-5--5-5-|-5--5-5-5--5-x-|


  E
  Q  E E E E  E E   Q   E E +E  E E E  3x  q   Q   H          W
|-----------------|--------------------||-------------------|-----------------||
|----9-9----------|-------------------o||--9----------------|-----------------||
|----9-9----------|--------------------||--9----------------|-----------------||
|----9-9---9-11-9-|-9--11-9-(9)-9-x-9--||--9----------------|-----------------||
|----7-7---7--7-7-|-7---7-7-(7)-7-x-7-o||--7----------------|-----------------||
|-0---------------|--------------------||-------------------|-----------------||
|
| Gtr I
|                                                      PM            PM
| W                 W                  3x  Q   q   Q   E  e   E E q  q   Q
|-----------------|--------------------||-------------------|-----------------||
|-----------------|-------------------o||-------------------|-----------------||
|-----------------|--------------------||-------------------|-----2-----------||
|-----------------|--------------------||-------------------|---2-2-----------||
|-----------------|-------------------o||--x\---------------|---0-------------||
|-----------------|--------------------||-10\--0--10\--0-/6-|--------0--10\---||


 Outro
  E                                      B
  Gtrs II, III
  Q   E E E E  E E   E E  E E E E  E E   Q   E E E E  E E   E E  q  E E  E E
|------------------|-------------------|------------------|-------------------|
|------------------|-------------------|------------------|-------------------|
|------------------|-------------------|------------------|-------------------|
|-9--11-9-9-9-11-9-|-9-9-11-9-9-9-11-9-|------------------|-------------------|
|-7---7-7-7-7--7-7-|-7-7--7-7-7-7--7-7-|-9--11-9-9-9-11-9-|-9-9-11--9-x-11-9--|
|------------------|-------------------|-7---7-7-7-7--7-7-|-7-7--7--7-x--7-7--|


  A                               E
  Q  E E Q  E E   Q  E E Q  E E   Q    E E  E  E   E E   Q    E E +E  E E E
|---------------|---------------|----------------------|--------------------|
|---------------|---------------|------9-9-------------|--------------------|
|---------------|---------------|------9-9-------------|--------------------|
|---------------|---------------|------9-9-----9--11-9-|-9---11-9-(9)-9-x-9-|
|-7--9-7-7--9-7-|-7--9-7-7--9-x-|------7-7-----7---7-7-|-7----7-7-(7)-7-x-7-|
|-5--5-5-5--5-5-|-5--5-5-5--5-x-|-0--------------------|--------------------|
|
| Gtr I
| W               W               Q  a Q    E  Q.        Q.     E +Q    Q
|---------------|---------------|------0----0--0-------|-0------0-(0)---0---|
|---------------|---------------|----3s5---(5)-5-------|-5------5-(5)---5---|
|---------------|---------------|----------------------|--------------------|
|---------------|---------------|----------------------|--------------------|
|---------------|---------------|----------------------|--------------------|
|---------------|---------------|----------------------|--------------------|


  Q   E E E E  E E   E E  E E E E  E E
|------------------|-------------------|
|------------------|-------------------|
|------------------|-------------------|
|-9--11-9-9-9-11-9-|-9-9-11-9-9-9-11-9-|
|-7---7-7-7-7--7-7-|-7-7--7-7-7-7--7-7-|
|------------------|-------------------|
|
| W                  W
|------------------|-------------------|
|------------------|-------------------|
|------------------|-------------------|
|------------------|-------------------|
|------------------|-------------------|
|------------------|-------------------|


  B
  Q   E E E E  E E   E  E  q   E  E  E E
|------------------|----------------------|
|------------------|----------------------|
|------------------|----------------------|
|------------------|----------------------|
|-9--11-9-9-9-11-9-|-9--9-11---9--x-11-9--|
|-7---7-7-7-7--7-7-|-7--7--7---7--x--7-7--|
|
| H       H          Q.      E Q.      E
|------------------|----------------------|
|------------------|----------------------|
|-4-------4--------|-4-------4-4----------|
|-4-------4--------|-4-------4-4----------|
|-2-------2--------|-2-------2-2----------|
|------------------|----------------------|


  A                                  E
  Q   E E Q  E E   Q    E E Q  E E   Q  E E E E    E E   Q    E E +E  E E E
|----------------|-----------------|-------------------|--------------------|
|----------------|-----------------|----9-9------------|--------------------|
|----------------|-----------------|----9-9------------|--------------------|
|----------------|-----------------|----9-9---9---11-9-|-9---11-9-(9)-9-x-9-|
|-7---9-7-7--9-7-|-7----9-7-7--9-x-|----7-7---7----7-7-|-7----7-7-(7)-7-x-7-|
|-5---5-5-5--5-5-|-5----5-5-5--5-x-|-0-----------------|--------------------|
|
| E e Q   H        E E  q   q  Q     H      Q   a  Q     E E  E E  E  E Q
|---5------------|---0-/4----------|-------------------|--------------------|
|---5------------|-----/5---2------|-------------------|--------------------|
|----------------|---2------2------|-------------------|--------------------|
|----------------|-----------------|------------0h=2---|-0-1--2-0--1--2-0---|
|----------------|-----------------|------------0h=2---|--------------------|
|----------------|-----------------|-------------------|--------------------|


  Q   E E E E  E E   E E  E E E E  E E
|------------------|-------------------|
|------------------|-------------------|
|------------------|-------------------|
|-9--11-9-9-9-11-9-|-9-9-11-9-9-9-11-9-|
|-7---7-7-7-7--7-7-|-7-7--7-7-7-7--7-7-|
|------------------|-------------------|
|
| W                  Q    E E E E  E E
|------------------|-------------------|
|------------------|-------------------|
|------------------|-------------------|
|------------------|--------8s9-8s=9---|
|------------------|--------6s7-6s=7-9-|
|------------------|-----------------7-|


  B
  Q    E E E E  E E   E E  q   E E  E E
|-------------------|--------------------|
|-------------------|--------------------|
|-------------------|--------------------|
|-------------------|--------------------|
|-9---11-9-9-9-11-9-|-9-9-11---9-x-11-9--|
|-7----7-7-7-7--7-7-|-7-7--7---7-x--7-7--|
|
| E E  Q   Q    E E   Q    E E Q    E E
|-------------------|--------------------|
|-------------------|--------------------|
|-------------------|------9-8-8---------|
|-------------------|------9-9-9---------|
|---9-------------9-|-9----9-9-9----9-7--|
|-7-7-------------7-|-7----7-7-7----7-5--|


  A
  Q   E E Q   E E    Q   E E Q  E E
|-----------------|-----------------|
|-----------------|-----------------|
|-----------------|-----------------|
|-----------------|-----------------|
|-7---9-7-7---9-7-|--7---9-7-7--9-x-|
|-5---5-5-5---5-5-|--5---5-5-5--5-x-|
|
| E E Q   Q.    E   +Q   Q   Q  Q
|---5-------------|----------5------|
|---5-------------|----------5------|
|---------6-----6-|-(6)--6---6--6---|
|---------7-----7-|-(7)--7---7--7---|
|-7-------7-----7-|-(7)--7------7---|
|-5-------5-----5-|-(5)--5------5---|


  E
  Q   E     E   E   E  E E   Q     E E +E   E E E
|--------------------------|-----------------------|
|-----9-----9--------------|-----------------------|
|-----9-----9--------------|-----------------------|
|-----9-----9-------9-11-9-|-9----11-9-(9)--9-x-9--|
|-----7-----7-------7--7-7-|-7-----7-7-(7)--7-x-7--|
|-0------------------------|-----------------------|
|
| E E E    +E  +Q      Q     Q     Q    Q     Q
|--------------------------|-----------------------|
|--------------------------|-----------------------|
|--------------------------|-----------------------|
|--------------------------|-----------------------|
|--------------------------|-----------------------|
|-x-3-3b4==(3)-(3)r--------|-3b4--------3b4--------|


  Q   E E E E  E E   E E  E E E E  E E
|------------------|-------------------|
|------------------|-------------------|
|------------------|-------------------|
|-9--11-9-9-9-11-9-|-9-9-11-9-9-9-11-9-|
|-7---7-7-7-7--7-7-|-7-7--7-7-7-7--7-7-|
|------------------|-------------------|
|
| W                  H        Q    E E
|------------------|-------------------|
|------------------|-------------------|
|------------------|-------------------|
|------------------|-----------------4-|
|------------------|----------2----0-2-|
|------------------|----------0--------|


  B
  Q   E E E E  E E   E E  q    E  E  E E
|------------------|----------------------|
|------------------|----------------------|
|------------------|----------------------|
|------------------|----------------------|
|-9--11-9-9-9-11-9-|-9-9-11----9--x-11-9--|
|-7---7-7-7-7--7-7-|-7-7--7----7--x--7-7--|
|
| Q   E E Q    E E   E E  E E +E  E  E E
|------------------|----------------------|
|---------4--------|----------------------|
|-------4-4--------|--------4-(4)-4-------|
|-4---6-4-4----6-4-|--------4-(4)-4----2--|
|-2---2-2-2----2-2-|---2----2-(2)-2--0-0--|
|------------------|-2----4---------------|


  A                                  E
  Q  E E Q  E E   Q   E E  Q   E E   Q    E E  E  E   E E   Q   E E +E  E E E
|---------------|------------------|----------------------|-------------------|
|---------------|------------------|------9-9-------------|-------------------|
|---------------|------------------|------9-9-------------|-------------------|
|---------------|------------------|------9-9-----9--11-9-|-9--11-9-(9)-9-x-9-|
|-7--9-7-7--9-7-|-7---9-7--7---9-x-|------7-7-----7---7-7-|-7---7-7-(7)-7-x-7-|
|-5--5-5-5--5-5-|-5---5-5--5---5-x-|-0--------------------|-------------------|
|
| W               Q.    E +Q   Q     Q  a Q   +E  Q.        Q   E E +H
|---------------|------------------|------0---(0)-0-------|-0-----0-(0)-------|
|-2-------------|-2-----2-(2)--2---|----3s5---(5)-3-------|-0-----3-(3)-------|
|-2-------------|-2-----2-(2)--2---|----------------------|-------------------|
|-2-------------|-2-----2-(2)--2---|----------------------|-------------------|
|-0-------------|-0-----0-(0)--0---|----------------------|-------------------|
|---------------|------------------|----------------------|-------------------|


   Q    E E E E   E E   E E  E E  E  E  E E
|---------------------|---------------------|
|---------------------|---------------------|
|---------------------|---------------------|
|--9---11-9-9-9--11-9-|-9-9-11-9--9--9-11-9-|
|--7----7-7-7-7---7-7-|-7-7--7-7--7--7--7-7-|
|---------------------|---------------------|
|
| +Q    q   E Q.        q    E E +Q     Q
|-(0)---0-----0-------|-0------0-(0)--------|
|-(3)---0-----3-------|-0------3-(3)--------|
|---------------------|--------1-(1)--------|
|---------------------|---------------------|
|---------------------|---------------------|
|---------------------|---------------------|


  B
  Q   E E E E  E E   E E  q  E E  E E
|------------------|-------------------*|
|------------------|-------------------*|
|------------------|-------------------*|
|------------------|-------------------*|
|-9--11-9-9-9-11-9-|-9-9-11--9-x-11-9--*|
|-7---7-7-7-7--7-7-|-7-7--7--7-x--7-7--*|
|
| W                  W
|------------------|-------------------*|
|------------------|-------------------*|
|------------------|-------------------*|
|------------------|-------------------*|
|------------------|-------------------*|
|------------------|-------------------*|


Duration Legend
---------------
W - whole; H - half; Q - quarter; E - 8th; S - 16th; T - 32nd; X - 64th; a - acciaccatura
+ - note tied to previous; . - note dotted; .. - note double dotted
Uncapitalized letters represent notes that are staccato (1/2 duration)
Irregular groupings are notated above the duration line
Duration letters will always appear directly above the note/fret number it represents the
duration for.  Duration letters with no fret number below them represent rests.  Multi-
bar rests are notated in the form Wxn, where n is the number of bars to rest for.  Low
melody durations appear below the staff

Tablature Legend
----------------
 h   - hammer-on
 p   - pull-off
 b   - bend
 pb  - pre-bend
 r   - bend release (if no number after the r, then release immediately)
 /\  - slide into or out of (from/to "nowhere")
 s   - legato slide
 S   - shift slide
  - natural harmonic
[n]  - artificial harmonic
n(n) - tapped harmonic
 ~   - vibrato
 tr  - trill
 T   - tap
 TP  - trem. picking
 PM  - palm muting
\n/  - tremolo bar dip; n = amount to dip
 \n  - tremolo bar down
 n/  - tremolo bar up
/n\  - tremolo bar inverted dip
 =   - hold bend; also acts as connecting device for hammers/pulls
 <>  - volume swell (louder/softer)
 x   - on rhythm slash represents muted slash
 o   - on rhythm slash represents single note slash

Misc Legend
-----------
 |  - bar
||  - double bar
||o - repeat start
o|| - repeat end
*|  - double bar (ending)
 :  - bar (freetime)
 $  - Segno
 &  - Coda
Tempo markers -  = BPM(8/16=s8/s16), where s8 = swing 8ths, s16 = swing 16ths
Добавлено: 28.08.2015
Вам также может быть интересно:
Другие материалы по этой песне:

Страница создана 26.08.2014
http://primanota.ru/rolling-stones/neighbours-chords.htm
Привет, Гость.
Предлагаем пройти революционный курс по гитаре.
Подарок от PrimaNota.Ru, забирай!