PrimaNota.ru - самый крупный в мире бесплатный архив песенных текстов, аккордов, табулатур и нот


Rolling Stones - Jumpin Jack Flash Live - таба, бас-таба, видео

Регистрация Запомнить меня
Войти через:  Facebook Google Twitter Vk Yandex Mail.ru

Rolling Stones - Jumpin Jack Flash Live - таба, бас-таба, видео

Печатать
Просмотров: 99
-------------------------------------------------------------------------------
                             JUMPIN' JACK FLASH - The Rolling Stones
-------------------------------------------------------------------------------
Tabbed by: AVergnano

This is the tab of the live verision recorded on Get Yer Ya Ya's Out! back in 1969.

Tuning: Open G (D-B-G-D-G-D) !!

Capo: 4th fret


Main Riff
D|-------------------------------------------------------------------------------|
B|-------------------------------------------------------------------------------|
G|-----0-0------3-----3-----3--0-0-----------------------------------------------|
D|-----0-0--0-3-3-0-3-3-0-3-3-.0-0-----------------------------------------------|
G|-----0-0--0-3---0-3---0-3----0-0-----------------------------------------------|
D|-------------------------------------------------------------------------------|

Chorus
D|--------------------------------------------------------------------------------|
B|-----3-4-4-3-----10-10-11-11-10-----5-5-6-6-5-----0-1-1-0-0---------------------|
G|-----3-3-3-3-----10-10-10-10-10-----5-5-5-5-5-----0-0-0-0-0---------------------|
D|-----3-5-5-3-----10-10-12-12-10-----5-5-7-7-5-----0-2-2-0-0---------------------|
G|--------------------------------------------------------------------------------|
D|--------------------------------------------------------------------------------|

D|--------------------------------------------------------------5-5-5----5-5-5-----|
B|-----3-4-4-3-----10-10-11-11-10-----5-5-5-------0-0-0--------3-3-3----3-3-3------|
G|-----3-3-3-3-----10-10-10-10-10-----5-5-5-------0-0-0--------4-4-4----4-4-4------|
D|-----3-5-5-3-----10-10-12-12-10-----5-5-5-------0-0-0----------------------------|
G|---------------------------------------------------------------------------------|
D|---------------------------------------------------------------------------------|

Main Riff
D|-------------------------------------------------------------------------------|
B|-------------------------------------------------------------------------------|
G|-----0-0------3-----3-----3--0-0-----------------------------------------------|
D|-----0-0--0-3-3-0-3-3-0-3-3-.0-0-----------------------------------------------|
G|-----0-0--0-3---0-3---0-3----0-0-----------------------------------------------|
D|-------------------------------------------------------------------------------|

Chorus
D|--------------------------------------------------------------------------------|
B|-----3-4-4-3-----10-10-11-11-10-----5-5-6-6-5-----0-1-1-0-0---------------------|
G|-----3-3-3-3-----10-10-10-10-10-----5-5-5-5-5-----0-0-0-0-0---------------------|
D|-----3-5-5-3-----10-10-12-12-10-----5-5-7-7-5-----0-2-2-0-0---------------------|
G|--------------------------------------------------------------------------------|
D|--------------------------------------------------------------------------------|

D|--------------------------------------------------------------5-5-5----5-5-5-----|
B|-----3-4-4-3-----10-10-11-11-10-----5-5-5-------0-0-0--------3-3-3----3-3-3------|
G|-----3-3-3-3-----10-10-10-10-10-----5-5-5-------0-0-0--------4-4-4----4-4-4------|
D|-----3-5-5-3-----10-10-12-12-10-----5-5-5-------0-0-0----------------------------|
G|---------------------------------------------------------------------------------|
D|---------------------------------------------------------------------------------|

Bridge
D|------------------------------------------------------------------ ----------|
B|-----------------------------------------------------------------------------|
G|----5-5-3-3/2-2--0-0-------5-5-3-3/2-2--0-0----------------------------------|
D|----5-5-3-3/2-2--0-0-------5-5-3-3/2-2--0-0----------------------------------|
G|----5-5-3-3/2-2--0-0-------5-5-3-3/2-2--0-0----------------------------------|
D|-----------------------------------------------------------------------------|

And so on...


************************************

| /   slide up
| \   slide down
| h   hammer-on
| p   pull-off
| ~   vibrato
| +   harmonic
| x   Mute note
| b   Bend
| pb  Pre-bend
| br  Bend release
| pbr Pre-bend release
| brb Bend release bend

************************************
Добавлено: 12.10.2013
Другие материалы по этой песне:

Страница создана 12.10.2013
http://primanota.ru/rolling-stones/jumpin-jack-flash-live-chords.htm
Привет, Гость.
Предлагаем пройти революционный курс по гитаре.
Подарок от PrimaNota.Ru, забирай!