PrimaNota.ru - самый крупный в мире бесплатный архив песенных текстов, аккордов, табулатур и нот


Rolling Stones - Has Anybody Seen my Baby - аккорды и текст, таба, видео

Регистрация Запомнить меня
Войти через:  Facebook Google Twitter Vk Yandex Mail.ru

Rolling Stones - Has Anybody Seen my Baby - аккорды и текст, таба, видео

Печатать
Просмотров: 264
Уроки эстрадного вокала в Санкт-Петербурге
Has Anybody Seen my Baby
Rolling Stones



^=bend
*=release bend
^*=bend, then release



                       Rolling Stones
                    Anybody Seen My Baby
                Tabbed By: Spider1666@aol.com
--------------------------------------------------------

Song starts of with bass riff:

--------------------
--------------------
-0--3--5--7--5--3--0
--------------------

Then, the first time you hear the guitar it goes:

E---3----------------------------------------------
B--3-----------------------------------------------
G-0------------------------------------------------
D--------------------------------------------------
A--------------------------------------------------
E--------------------------------------------------
Then there is some picking after that.

right before the chorus you hit the bottom E string open
           G  D C Em
Anybody se...
           G   D  C
Anybody Seen ...
Love has Gone
       G        E
And Made ...
                               C
I've looked but I ...
                  G  D         C
She has gotten ....
-----------------------------------------------------
Right before the verse you do this:

E-----------------------------------------------------
B--5^*-5----------------------------------------------
G--5^*-5----------------------------------------------
D-----------------------------------------------------
A-----------------------------------------------------
E-----------------------------------------------------
You also play that during the verse.  Then the
pre-chrous is:

E----3--------------------------------------------------
B---3---------------------------------------------------
G--0----------------------------------------------------
D-------------------------------------------------------
A-------------------------------------------------------
E-------------------------------------------------------
Do some picking to make it sound like the CD.

The chorus is like the first chorus, with the same chords.
Just put them in were the accent in the music is.


Добавлено: 29.09.2013
Другие материалы по этой песне:
  • Аккорды и текст

Страница создана 04.06.2012
http://primanota.ru/rolling-stones/has-anybody-seen-my-baby-chords.htm
Привет, Гость.
Предлагаем пройти революционный курс по гитаре.
Подарок от PrimaNota.Ru, забирай!