PrimaNota.ru - самый крупный в мире бесплатный архив песенных текстов, аккордов, табулатур и нот


Rolling Blackouts - Rock Paper Scissors - таба, видео

Регистрация Запомнить меня
Войти через:  Facebook Google Twitter Vk Yandex Mail.ru

Rolling Blackouts - Rock Paper Scissors - таба, видео

Печатать
Просмотров: 103
Уроки эстрадного вокала в Санкт-Петербурге
Hello this is my first tab that
I've done and it's a tab of a band
that isn't very popular but I think
they are amazing and the song is pretty easy.
I haven't done the solo because my guitar
skill ain't that good so I hope you like it.

Verse 1

E-------------------|
B-8~--11~--13~--11~-|  x3
G-------------------|
D-------------------|
A-------------------|
E-------------------|

Pre-Chorus (im not sure is it hold or strum im more sure it's a hold)

E-------------|
B-------------|
G-2~-4~-5~-2--|
D-2~-4~-5~-2--|
A-0~-2~-3~-0--|   MUTE THE LAST CHORD
E-------------|

Chorus

E------------|
B------------|
G-2222-44-55-|
D-2222-44-55-|  8x
A-0000-22-33-|
E------------|

Verse 2

Guitar 1
E-------------------|
B-8~--11~--13~--11~-|  x3
G-------------------|
D-------------------|
A-------------------|
E-------------------|

Guitar 2 Palm Mute!!!
E--------------------|
B--------------------|
G-22222222-4444-5555-|
D-22222222-4444-5555-|  x4
A-00000000-2222-3333-|
E--------------------|
  ******************

Pre-Chorus
E-------------|
B-------------|
G-2~-4~-5~-2--|
D-2~-4~-5~-2--|
A-0~-2~-3~-0--|   MUTE THE LAST CHORD
E-------------|

Chorus
E------------|
B------------|
G-2222-44-55-|
D-2222-44-55-|  8x
A-0000-22-33-|
E------------|

Solo Guitar 1
(Haven't done it yet but if any one has done it or wanna do it I would be gratefull if 
you send it to me!!!)

Solo Guitar 2

E----------|
B----------|
G-2~--4-5~-|
D-2~--4-5~-| Play it until the drum solo
A-0~--2-3~-|
E----------|

Drum Solo

Guitar 2
E---------------|
B---------------|
G-2~~-4-5-------|
D-2~~-4-5-------|
A-0~~-2-3-/18b--|
E---------------|
Druming
Guitar 1 Does a little solo
Guitar 2
E---------|
B---------|
G-2~~-4-5-|
D-2~~-4-5-|
A-0~~-2-3-|
E---------|
Druming
Guitar 1 some effects
Guitar 2
E---------|
B---------|
G-2~~-4-5-|
D-2~~-4-5-|
A-0~~-2-3-|
E---------|
Druming
Guitar 1 Does some effects
Guitar 2
E---------|
B---------|
G-2~~-4-5-|
D-2~~-4-5-|
A-0~~-2-3-|
E---------|

Guitar 2
E------------|
B------------|
G-2222-44-55-|
D-2222-44-55-|  2x
A-0000-22-33-|
E------------|

Chorus

E------------|
B------------|
G-2222-44-55-|
D-2222-44-55-|  8x
A-0000-22-33-|
E------------|

end on
E----|
B----|
G-2~-|
D-2~-|
A-0~-|
E----|

That's it and im 99% sure it's correct. Have Fun
Добавлено: 29.07.2012
Другие материалы по этой песне:
  • Аккорды и текст

Страница создана 29.07.2012
http://primanota.ru/rolling-blackouts/rock-paper-scissors-chords.htm
Привет, Гость.
Предлагаем пройти революционный курс по гитаре.
Подарок от PrimaNota.Ru, забирай!