PrimaNota.ru - самый крупный в мире бесплатный архив песенных текстов, аккордов, табулатур и нот


Rolandz - Jajamen - таба, видео

Регистрация Запомнить меня
Войти через:  Facebook Google Twitter Vk Yandex Mail.ru

Rolandz - Jajamen - таба, видео

Печатать
Просмотров: 81
Уроки эстрадного вокала в Санкт-Петербурге
-------------------------------------------------------------------------------
                             JAJAMEN - Rolandz
-------------------------------------------------------------------------------
Tabbed by: elan88889
E-mail: elis.librand@yahoo.com

Tuning: STANDARD

VERSE:
e|-----------------------------------|-----------------------------------|
B|-----------------------------------|-----------------------------------|
G|-----------------------------------|-----------------------------------|
D|-----------------------------------|----------2-2-4-2---------2-2-4-2--|
A|----------2-2-4-2---------2-2-4-2--|--0-0-3-4---------0-0-3-4----------|
E|--0-0-3-4---------0-0-3-4----------|-----------------------------------|

e|-----------------------------------|-----------------------------------|
B|-----------------------------------|-----------------------------------|
G|-----------------------------------|-----------------------------------|
D|----------4-4-6-4---------4-4-6-4--|-----------------------------------|
A|--2-2-5-6---------2-2-5-6----------|----------2-2-4-2---------2-2-4-2--|
E|-----------------------------------|--0-0-3-4---------0-0-3-4----------|

e|-----------------------------------|---------------------|
B|-----------------------------------|---------------------|
G|-----------------------------------|---------------------|
D|-----------------------------------|----------2-2-4-2----|
A|----------2-2-4-2---------2-2-4-2--|--0-0-3-4---------0--|
E|--0-0-3-4---------0-0-3-4----------|---------------------|

e|-----------------------------------------------------------------|
B|-----------------------------------------------------------------|
G|-----------------------------------------------------------------|
D|--------------------------------------4-4-6-4--------------------|
A|--7---6---5---4-------4-4-6-4-2-2-5-6-----------------2-2-4-2----|
E|--5---4---3---2-2-5-6-------------------------0-0-3-4---------0--|

CHORUS:
e|-----------------------------------|-----------------------------------|
B|-----------------------------------|-----------------------------------|
G|-----------------------------------|-----------------------------------|
D|----------2-2-4-2---------4-4-6-4--|--------------------------6-6------|
A|--0-0-3-4---------2-2-5-6----------|----------2-2-4-2-4-4-7-7-----7-7--|
E|-----------------------------------|--0-0-3-4--------------------------|

e|-----------------------------------|-----------------------------------|
B|-----------------------------------|-----------------------------------|
G|-----------------------------------|-----------------------------------|
D|----------2-2-4-2---------4-4-6-4--|--2-2-----2-2----------------------|
A|--0-0-3-4---------2-2-5-6----------|------4-2-----4-2------------------|
E|-----------------------------------|------------------0-0-2-2-3-3-4-4--|

e|-----------------------------------|-----------------------------------|
B|-----------------------------------|-----------------------------------|
G|-----------------------------------|-----------------------------------|
D|----------2-2-4-2---------4-4-6-4--|----------6-6-------------6-6------|
A|--0-0-3-4---------2-2-5-6----------|--4-4-7-7-----7-7-4-4-7-7-----7-7--|
E|-----------------------------------|-----------------------------------|

e|---------------------|
B|---------------------|
G|---------------------|
D|----------2-2-4-2-4--|
A|--0-0-3-4---------2--|
E|---------------------|


INTERLUDE:
e|---------------------------------|
B|-----10-10-9---------10----10-9--|
G|-----x--x--x---------x-----x--x--|
D|--9--9--9--9---9--9--9--9--9--9--|
A|--7--7--7--7---7--7--7--7--7--7--|
E|---------------------------------|

(VERSE)

(CHORUS)

BRIDGE:
e|-----------------------------------|-----------------------------------|
B|-----------------------------------|-----------------------------------|
G|--6----------------2---------------|--6----------------4---------------|
D|--6----------------2---------------|--6----------------4---------------|
A|--4----------------0---------------|--4----------------2---------------|
E|-----------------------------------|-----------------------------------|

e|-----------------------------------|
B|-----------------------------------|
G|--6----------------2---------------|
D|--6----------------2---------------|
A|--4----------------0---------------|
E|-----------------------------------|

e|-------------------------------------------------------------------------------|
B|-------------------------------------------------------------------------------|
G|-------------------------------------------------------------------------------|
D|--------------------------------------4-4-6-4----------------------------------|
A|--7---6---5---4-------4-4-6-4-2-2-5-6-----------------2-2-4-2------------------|
E|--5---4---3---2-2-5-6-------------------------0-0-3-4---------0-0-2-2-3-3-4-4--|

CHORUS/INTERLUDE:
e|-----------------------------------|-----------------------------------|
B|-----------------------------------|-----------------------------------|
G|-----------------------------------|-----------------------------------|
D|----------2-2-4-2---------4-4-6-4--|--------------------------6-6------|
A|--0-0-3-4---------2-2-5-6----------|----------2-2-4-2-4-4-7-7-----7-7--|
E|-----------------------------------|--0-0-3-4--------------------------|

e|-----------------------------------|-----------------------------------|
B|-----------------------------------|-----------------------------------|
G|-----------------------------------|-----------------------------------|
D|----------2-2-4-2---------4-4-6-4--|-----------------------------------|
A|--0-0-3-4---------2-2-5-6----------|--7-4-----------3------------------|
E|-----------------------------------|------7-4-2-0---1------------------|

CHORUS(KEY CHANGE)
e|-----------------------------------|-----------------------------------|
B|-----------------------------------|-----------------------------------|
G|-----------------------------------|-----------------------------------|
D|----------3-3-5-3---------5-5-7-5--|--------------------------7-7------|
A|--1-1-4-5---------3-3-6-7----------|----------3-3-5-3-5-5-8-8-----8-8--|
E|-----------------------------------|--1-1-4-5--------------------------|

e|-----------------------------------|-----------------------------------|
B|-----------------------------------|-----------------------------------|
G|-----------------------------------|-----------------------------------|
D|----------3-3-5-3---------5-5-7-5--|--3-3-----3-3----------------------|
A|--1-1-4-5---------3-3-6-7----------|------5-3-----5-3------------------|
E|-----------------------------------|------------------1-1-3-3-4-4-5-5--|

e|-----------------------------------|-----------------------------------|
B|-----------------------------------|-----------------------------------|
G|-----------------------------------|-----------------------------------|
D|----------3-3-5-3---------5-5-7-5--|--------------------------7-7------|
A|--1-1-4-5---------3-3-6-7----------|----------3-3-5-3-5-5-8-8-----8-8--|
E|-----------------------------------|--1-1-4-5--------------------------|

e|-----------------------------------|-----------------------------------|
B|-----------------------------------|-----------------------------------|
G|-----------------------------------|-----------------------------------|
D|----------3-3-5-3---------5-5-7-5--|--3-3-----3-3----------------------|
A|--1-1-4-5---------3-3-6-7----------|------5-3-----5-3------------------|
E|-----------------------------------|------------------1-1-3-3-4-4-5-5--|

e|-----------------------------------|-----------------------------------|
B|-----------------------------------|-----------------------------------|
G|-----------------------------------|-----------------------------------|
D|----------3-3-5-3---------5-5-7-5--|----------7-7-------------7-7------|
A|--1-1-4-5---------3-3-6-7----------|--5-5-8-8-----8-8-5-5-8-8-----8-8--|
E|-----------------------------------|-----------------------------------|

e|-----------------------------------|-----------------------------------|
B|-----------------------------------|-----------------------------------|
G|-----------------------------------|-----------------------------------|
D|----------3-3-5-3-5----------------|--3---5----10-10-10-10---10-10-10--|
A|--1-1-4-5---------3----------------|--1---3----8--8--8--8----8--8--8---|
E|-----------------------------------|-----------------------------------|


************************************

| /   slide up
| \   slide down
| h   hammer-on
| p   pull-off
| ~   vibrato
| +   harmonic
| x   Mute note
| b   Bend
| pb  Pre-bend
| br  Bend release
| pbr Pre-bend release
| brb Bend release bend

************************************
Добавлено: 16.12.2015
Другие материалы по этой песне:
  • Аккорды и текст

Страница создана 16.12.2015
http://primanota.ru/rolandz/jajamen-chords.htm
Привет, Гость.
Предлагаем пройти революционный курс по гитаре.
Подарок от PrimaNota.Ru, забирай!