PrimaNota.ru - самый крупный в мире бесплатный архив песенных текстов, аккордов, табулатур и нот


Roky Erickson - Starry Eyes - бас-таба, видео

Регистрация Запомнить меня
Войти через:  Facebook Google Twitter Vk Yandex Mail.ru

Roky Erickson - Starry Eyes - бас-таба, видео

Печатать
Просмотров: 97
Intro/Outro
G-------------------------------------|
D-------------------------------------|
A------------------3--------8--7--5---|
E-3-------0---------------------------|

Main                               x3
G------------------------------------|------------------------------------|
D------------------------------------|------------------------------------|
A----------7-7-7-7--3-3-3-3--5-3-2-0-|----------7-7-7-7--3-3-3-3--5-5-5-5-|
E-3-3-3-3----------------------------|-3-3-3-3----------------------------|


Bridge         ("When I'm alone...")
G--------------------------------------------------------------------------------------|
D--------------------------------------------------------------------------------------|
A-------------------------------3-------5---------------3--------5--------10---9---7---|
E-3--33-3--3-2-0-------3-----------------------3---------------------------------------|


("Two alone in the dark...")
G----------------------------------|
D----------------------------------|
A-3-3-3-3-3-3-3-3--5-5-5-5-5-3-2-0-|
E----------------------------------|
Добавлено: 16.06.2015
Другие материалы по этой песне:
  • Аккорды и текст

Страница создана 16.06.2015
http://primanota.ru/roky-erickson/starry-eyes-chords.htm
Привет, Гость.
Предлагаем пройти революционный курс по гитаре.
Подарок от PrimaNota.Ru, забирай!