PrimaNota.ru - самый крупный в мире бесплатный архив песенных текстов, аккордов, табулатур и нот


Roky Erickson - Nothing In Return - бас-таба, видео

Регистрация Запомнить меня
Войти через:  Facebook Google Twitter Vk Yandex Mail.ru

Roky Erickson - Nothing In Return - бас-таба, видео

Печатать
Просмотров: 101
Verse
G--------------------------------|
D--------------------------------|
A----------------3--3-3--5-5-5-5-|
E-3--3-3-3-3-3-3-----------------|


Chorus ("There's nothing in this...")
G--------------------------------------------------------------------------|
D-----------------------------------------------------------------55555555-|
A-3-3-3-3--5-5-5-5--10-10--9-9--7-7--5-5--3-3-3-3--5-5-5-5-----------------|
E----------------------------------------------------------3-3-3-3---------|


Bridge ("If I only knew how to...")
G-----------------------------------------------------------------------|
D-----------------------------------------------------------------------|
A-3-3-3-3--5-5-5-5--10-10-9-9-7-7-7-7--3-3-3-3-3-3-3-3-3-3-3-3--5-5-5-5-|
E-----------------------------------------------------------------------|


Second Bridge (just has the octave fills)
G----------------------12---10-------------------------------------------|
D------------------------------------------------------------------------|
A-3-3-3-3--5-5-5-5--10----9----7-7-7-7--3-3-3-3-3-3-3-3-3-3-3-3--5-5-5-5-|
E------------------------------------------------------------------------|


Outro                                 x7
G---------------------------------------|--------------------------------|
D---------------------------------------|--------------------------------|
A-3-3-3-3--5-5-5-5--/10-------7---------|-3-3-3-3--5-5-5-5---------------|
E---------------------------------------|-------------------3------------|
Добавлено: 16.06.2015
Другие материалы по этой песне:
  • Аккорды и текст

Страница создана 16.06.2015
http://primanota.ru/roky-erickson/nothing-in-return-chords.htm
Привет, Гость.
Предлагаем пройти революционный курс по гитаре.
Подарок от PrimaNota.Ru, забирай!