PrimaNota.ru - самый крупный в мире бесплатный архив песенных текстов, аккордов, табулатур и нот


Roky Erickson - Dont Slander Me - бас-таба, видео

Регистрация Запомнить меня
Войти через:  Facebook Google Twitter Vk Yandex Mail.ru

Roky Erickson - Dont Slander Me - бас-таба, видео

Печатать
Просмотров: 63
Intro (guitar only at first)   
G-----------------------------|-----------------------------|
D-----------------------------|-----------------------------|
A-----------------------------|-----------------------------|
E-----------------------------|-0--3-5-0--3-5-0--3-5-0--3-5-|


Chours ("Don't Slander me...")                    (also played behind first solo)
G--------------------------------------------------------------------------------------|
D------------------------------------------------------------0-2-----------------------|
A-----------------------------0--3-5-0--3-5---------------2------0--3-5----------------|
E-0--3-5-0--3-5-0--3-5-0--3-5---------------0--3-5-0--3-5---------------0--3-5---------|


Verse             x2
G-------------------|------------------------------------------------------------------------|
D-------------------|----6/7-7----6/7-7------------------------------------------------------|
A----6/7-7----6/7-7-|-0--------0-----------6/7-7----6/7-7--2-2-2-2-0-0-0-0----6/7-7----------|
E-0--------0--------|-------------------0--------0-------------------------0-----------------|


Verse 3           x2  (This is the verse after the 1st solo, it adds the fill)
G-------------------|---------------------------------------------------------------44444444-|
D-------------------|----6/7-7----6/7-7------------------------------------------------------|
A----6/7-7----6/7-7-|-0--------0-----------6/7-7----6/7-7--2-2-2-2-0-0-0-0----6/7-7----------|
E-0--------0--------|-------------------0--------0-------------------------0-----------------|


Second Solo
G-------------------------------------------------------------------------------------|
D------------------------------------------------------------0-2----------------------|
A-----------------------------0--3-5-0--3-5---------------2------0--3-5---------------|
E-0--3-5-0--3-5-0--3-5-0--3-5---------------0--3-5-0--3-5---------------0--3-5-0--3-5-|


Just listen for order, but it's simple to follow
Добавлено: 16.06.2015
Другие материалы по этой песне:
  • Аккорды и текст

Страница создана 16.06.2015
http://primanota.ru/roky-erickson/dont-slander-me-chords.htm
Привет, Гость.
Предлагаем пройти революционный курс по гитаре.
Подарок от PrimaNota.Ru, забирай!