PrimaNota.ru - самый крупный в мире бесплатный архив песенных текстов, аккордов, табулатур и нот


Rogue Wave - Temporary - аккорды и текст, таба, видео

Регистрация Запомнить меня
Войти через:  Facebook Google Twitter Vk Yandex Mail.ru

Rogue Wave - Temporary - аккорды и текст, таба, видео

Печатать
Просмотров: 121
Temporary
Rogue Wave
"Temporary" - Rogue Wave
----------------------------
Chords transcribed by Michael


Chords:
 C/G  G  Am  Am/F
e-0---3---0---0-------|
B-1---3---1---1-------|
G-0---0---2---2-------|
D-2---0---2---2-------|
A-3---2---0---0-------|
E-3---3------1--------|

Riff 1:
 Am/G       G    Am/F      G
e-------0---------------------|
B-----1---------------1-------|
G---2---------------2---------|
D-3---------------3-----------|
A-----------------------------|
E-----------------------------|

Intro: C/G x4

C/G           G
Sometimes I feel so low
         Am
I can't go on knowin
C/G           G             Am
here in the island log sharin my mind
           C/G G
upstairs an attic
C/G          G               Am
witness the bubble breakin down the spine
C/G            G                    Am
when we come through the rain almost by design

           C/G  G
upstairs an attic
upstairs an attic


Am/F G (w/ riff 1)
angel
angel

C/G   G

          C/G  G
upstairs an attic

Am/F G (w/riff 1)
angel
angel

Solo:
C/G G Am x4
C/G G x2
C/G G Am x3
C/G G x2

e-0-03035--0--030---0---0---03035--0---030---0----0-----0-----------------|
b--3---------3----3-------3----------3-----3--------31-----3-1------------|
g-------------------------------------------------------------------------|
d-------------------------------------------------------------------------|
a-------------------------------------------------------------------------|
e-------------------------------------------------------------------------|


e-0-03035--0--030---0---0---0353--0----0----------------------------------|
b--3---------3----3-------3---------31-----3-1----------------------------|
g-------------------------------------------------------------------------|
d-------------------------------------------------------------------------|
a-------------------------------------------------------------------------|
e-------------------------------------------------------------------------|
Добавлено: 06.05.2012
Другие материалы по этой песне:
  • Аккорды и текст

Страница создана 06.03.2012
http://primanota.ru/rogue-wave/temporary-chords.htm
Привет, Гость.
Предлагаем пройти революционный курс по гитаре.
Подарок от PrimaNota.Ru, забирай!