PrimaNota.ru - самый крупный в мире бесплатный архив песенных текстов, аккордов, табулатур и нот


Rogue Wave - Publish My Love - текст песни, таба, видео

Регистрация Запомнить меня
Войти через:  Facebook Google Twitter Vk Yandex Mail.ru

Rogue Wave - Publish My Love - текст песни, таба, видео

Печатать
Просмотров: 209
Уроки эстрадного вокала в Санкт-Петербурге
CHORDS:
               E A D G B E

B             7 7 9 9 9 7
E             7 9 9 8 7 7
A            5 7 7 6 5 5
F#m         2 4 4 2 2 2


(intro)
E--------------------------------------------------------------------------|
B--------------------------------------------------------------------------|
G--------6-6-6---9-9-9--11-11-11------------6-6-6---9-9-9---6-6-6----------|
D-9-9-9------------------------------9-9-9---------------------------------|
A--------------------------------------------------------------------------|
E--------------------------------------------------------------------------|


E------------------------------------------|
B------------------------------------------|
G--8-- 8------9--9-------------------------|
D--- 9---9 -----9--9-----------------------|
A------------------------------------------|
E------------------------------------------|

B                   E
Wait there, just enough to see you smile.
I mixed up the distance of the miracle mile.
E                                   B       A       F#m
you could never publish my love
you could never publish my love
you could never publish my love
you could never publish my love
B                             E
Just stand there, you could never make me go through it.
the congas, they're bleeding through his bit-battle prove it.

E                                     B      A     F#m
you could never publish my love
you could never publish my love
you could never publish my love
you could never publish my love

F#m           A
Whip me, but don't beat me.
I can't can't call?
you never left?

Break

B                          E
The sun beats down upon the brain of confusion?
But houses much better if the roof is connected.
E                                   B       A    F#m
you could never publish my love
you could never publish my love
you could never publish my love
you could never publish my love

(intro)

F#m           A
Whip me, but don't beat me.
Yeah, I can't cat fall?
I
A cat cat call?
You never left.
A cat cat call.

By_MaxiMod
Добавлено: 24.07.2012
Другие материалы по этой песне:
  • Аккорды и текст

Страница создана 24.07.2012
http://primanota.ru/rogue-wave/publish-my-love-chords.htm
Привет, Гость.
Предлагаем пройти революционный курс по гитаре.
Подарок от PrimaNota.Ru, забирай!