PrimaNota.ru - самый крупный в мире бесплатный архив песенных текстов, аккордов, табулатур и нот


Roger Hodgson - Breakfast In America - бас-таба, видео

Регистрация Запомнить меня
Войти через:  Facebook Google Twitter Vk Yandex Mail.ru

Roger Hodgson - Breakfast In America - бас-таба, видео

Печатать
Просмотров: 26
Авторы музыки: Roger Hodgson, Rick Davies
Авторы текста: Roger Hodgson, Rick Davies
SUPERTRAMP
Breakfast in America
Album: Breakfats in America
by Roger Hodgson

1979 A & M Records ltd

Bass Tabs


Tuning : E A D G
Tempo  : 78 bpm
Key signature: C

Intro: 00:01 (piano ouverture)
G|------------------------------|
D|------------------------------|
A|------------------------------|
E|------------------------------|


Verse1: 00:06
G|------------------|-------------|------------------|--------------|
D|------------------|-------------|------------------|--------------|
A|/3g-3-------------|-------------|-3g-3-------------|----------3g--|
E|-------6g-6--4g-4-|-4-3h-4-/-6g-|-------6g-6--4g-4-|-4-3h-4-/-----|
Take a look at my girlfriend
She's the only one I got
Not much of a girlfriend
Never seem to get a lot

G|-----------------|-5--------5--------|
D|-5-------5-------|---5h-------5h-----|
A|---5h------5h----|------3g-------3g--|
E|------3g------3g-|-------------------|
Take a jumbo across the water
Like to see America

G|----------------|-------------|---------------|
D|-5-------5------|-------------|---------------|
A|---5h------5h---|---------1g--|---------------|
E|------3g-----3g-|-4-3-1g------|-1g--1h/-6g~~--|
See the girls in California
I'm hoping it's going to come true
But there's not a lot I can do


Verse2: 00:37
G|------------------|-------------|------------------|--------------|
D|------------------|-------------|------------------|--------------|
A|/3g-3-------------|-------------|-3g-3-------------|----------3g--|
E|-------6g-6--4g-4-|-4-3h-4-/-6g-|-------6g-6--4g-4-|-4-3h-4-/-----|
Could we have kippers for breakfast
Mummy dear, Mummy dear
They got to have 'em in Texas
Cos everyone's a millionaire

G|-----------------|-5--------5--------|
D|-5-------5-------|---5h-------5h-----|
A|---5h------5h----|------3g-------3g--|
E|------3g------3g-|-------------------|
I'm a winner, I'm a sinner
Do you want my autograph

G|----------------|-------------|---------------|
D|-5-------5------|-------------|---------------|
A|---5h------5h---|---------1g--|---------------|
E|------3g-----3g-|-4-3-1g------|-1g--1h/-6g~~--|
I'm a loser, what a joker
I'm playing my jokes upon you
While there's nothing better to do

Instrumental(1): 01:08
G|-----------------|-5--------5--------------|-----3g~-----------|
D|-5-------5-------|---5h-------5h-----------|---5---------------|
A|---5h------5h----|------3g-------3g--------|-5--------5--6g----|
E|------3g------3g-|------------------6-4r~--|-------------------|
Badalala lalalalalala.... nanana


Verse3: 01:29
G|------------------|-------------|------------------|--------------|
D|------------------|-------------|------------------|--------------|
A|/3g-3-------------|-------------|-3g-3-------------|----------3g--|
E|-------6g-6--4g-4-|-4-3h-4-/-6g-|-------6g-6--4g-4-|-4-3h-4-/-----|
Don't you look at my girlfriend
She's the only one I got
Not much of a girlfriend
Never seem to get a lot

G|-----------------|-5--------5--------|
D|-5-------5-------|---5h-------5h-----|
A|---5h------5h----|------3g-------3g--|
E|------3g------3g-|-------------------|
Take a jumbo cross the water
Like to see America

G|----------------|-------------|---------------|
D|-5-------5------|-------------|---------------|
A|---5h------5h---|---------1g--|---------------|
E|------3g-----3g-|-4-3-1g------|-1g--1h/-6g~~--|
See the girls in California
I'm hoping it's going to come true
But there's not a lot I can do


Instrumental(2)/Outro: 02:00
G|-----------------|-5--------5--------|
D|-5-------5-------|---5h-------5h-----|
A|---5h------5h----|------3g-------3g--| x3
E|------3g------3g-|-------------------|
Badalala lalalalalala....

G|-----------------|-5--------5--------------|-----3g~-----------|
D|-5-------5-------|---5h-------5h-----------|---5---------------|
A|---5h------5h----|------3g-------3g--------|-5--------5--6g----|
E|------3g------3g-|------------------6-4r~--|-------------------|
 nanana....


End: 02:41


Tablature Legend ----------------
| S  slap
| P  pop
| x  mute note
| .  full stop
| /  slide up
| \  slide down
| h  hammer-on
| p  pull-off
| g  grace note
| ~  vibrato
| ^  brush up
| >  Link to next note
Добавлено: 05.05.2016
Вам также может быть интересно:
Другие материалы по этой песне:
  • Аккорды и текст

Страница создана 05.05.2016
http://primanota.ru/roger-hodgson/breakfast-in-america-chords.htm
Привет, Гость.
Предлагаем пройти революционный курс по гитаре.
Подарок от PrimaNota.Ru, забирай!